Song name
# A B C D E F G H I J K L M N O P Q R S T U V W X Y Z

Iron And Wine - Teeth In The Grass tab

Help us improve GuitareTab! Take a short survey!
Teeth in the Grass - Iron & Wine
Standard Tuning (E A D G B E)
Written by Sam Beam

This is my first attempt at tabbing anything so I apologize if there are any
small errors, but this sounds about perfect to me.
Anyway, this is one of the most underrated Iron & Wine songs.  Nice and fast with
a little bit of a menacing sound to it.  Here goes!

Capo on the 2nd

Verse
E|-----------------------------------------------------------------------------------|
B|-----------------------------------------------------------------------------------|
G|-----------------------------------------------------------------------------------|
D|--3/5--3-0-3-3-5-0-----3/5--3-0------------3/5--3-0-3-3-5--------------------------|
A|--------------------------------3-3-1-5--------------------------------------------|
E|-----------------------------------------------------------------------------------|

Chorus
E|-----------------------------------------------------------------------------------|
B|-----------------------------------------------------------------------------------|
G|--3/5-3-0-5-5-3-0------------------------------------------------------------------|
D|--3/5-3-0-3-3-3-0------------------------------------------------------------------|
A|-----------------------------------------------------------------------------------|
E|-----------------------------------------------------------------------------------|

Short bridge
E|-----------------------------------------------------------------------------------|
B|------8-----8-6-3-3/6-6\3----------------------------------------------------------|
G|--/7-----------------------/5-5/7--------------------------------------------------|
D|-----------------------------------------------------------------------------------|
A|-----------------------------------------------------------------------------------|
E|-----------------------------------------------------------------------------------|

Long bridge
E|-----------------------------------------------------------------------------------|
B|--/3-(/7)--------------/3-(/7)-----3----3--3--3--3--3--3--3------------------------|
G|-----------5p3---3p0---------------------------------------------------------------|
D|---0-----------5---------0---------0----0--0--0--0--0--0--0------------------------|
A|-----------------------------------------------------------------------------------|
E|-----------------------------------------------------------------------------------|

E|-----------------------------------------------------------------------------------|
B|--/3-(/7)---------------/3-(/7)------8----8--8--8--8--8--8--8----------------------|
G|-----------5p3---3p0---------------5\7----7--7--7--7--7--7--7----------------------|
D|---0-----------5---------0-----------0----0--0--0--0--0--0--0----------------------|
A|-----------------------------------------------------------------------------------|
E|-----------------------------------------------------------------------------------|


Song structure:
Verse
Chorus x3

Short bridge

Verse
Chorus x2

Long bridge

Short bridge

Verse
Chorus x2

Short bridge

Lyrics:
And when you give me your clothes
And when we’re lovers at last
Fresh air, perfume in your nose
There will be teeth in the grass

And when you give me your house
When we’re all brothers at last
There will be food in our mouths
There will be teeth in the grass

And when there’s nothing to want
When we’re all brilliant and fast
When all tomorrows are gone
There will be teeth in the grass
Related for Teeth In The Grass tab