Guitaretab - guitar tabs
Song name
# A B C D E F G H I J K L M N O P Q R S T U V W X Y Z

Iron And Wine - Lovesong Of The Buzzard Live tab

                         Tabbed By: Mark Peters
                       Email: mark.peters@ncl.ac.uk

There's a good tab up for this song at the moment, but the current version on Iron & 
myspace is absolutely awesome, and it's a little bit different..

This is: The Queens Hall - Edinburgh, UK Version

NOTE:

Tuning: Open Dsus: DADGAD **CAPO 4**

I've included the solos at the end as well!!


            (make sure to tune down all 3 strings - E-D, B-A, e-D)

    G   D   F   A
D|--0---0---0---0----------------------------------------------------------------|
A|--0---0---0---0----------------------------------------------------------------|
G|--0---2---0---0----------------------------------------------------------------|
D|--4---0---0---0----------------------------------------------------------------|
A|--5---0---2---7----------------------------------------------------------------|
D|--5---0---2---7----------------------------------------------------------------|


In each of these i'll put the pattern of the chord, i'll repeat each pattern 3 times so 
get the jist. Obviously they're repeated more in the song, but to save time and space, 
easier this way.

*G*

D|------0-----------0-------------0------------------------------------------|
A|---------------------------------------------------------------------------|
G|--0------0-----0-----0-----0------0----------------------------------------|
D|-----------4-----------4------------4--------------------------------------|
A|----4------------4------------4--------------------------------------------|
D|--5------------5-----------5-----------------------------------------------|

*D*

D|---------0--2p0------0---4-4-------2p0--0----------------------------------|
A|--0---------------------------0--------------------------------------------|
G|-----2----------2---------------0----------2-------------------------------|
D|-------0----------0--------------------------0-----------------------------|
A|---------------------------------------------------------------------------|
D|--0---------0------------0-0-------0----0----------------------------------|

*D* Second Version
[ Tab from: http://www.guitaretab.com/i/iron-and-wine/107653.html ]
D|---------0--2p0------0---4-4-------5\4--0----------------------------------|
A|--0---------------------------0--------------------------------------------|
G|-----2----------2---------------0----------2-------------------------------|
D|-------0----------0--------------------------0-----------------------------|
A|---------------------------------------------------------------------------|
D|--0---------0------------0-0-------0----0----------------------------------|

*F* (same pattern as G)

D|------0-----------0----------0---------------------------------------------|
A|---------------------------------------------------------------------------|
G|--0-----0----0------0----0-----0-------------------------------------------|
D|----------0-----------0----------0-----------------------------------------|
A|----2----------2-----------2-----------------------------------------------|
D|--2----------2-----------2-------------------------------------------------|

*A* (same pattern as G)

D|-------0----------0-----------0--------------------------------------------|
A|---------------------------------------------------------------------------|
G|--0------0----0------0----0-----0------------------------------------------|
D|-----------0-----------0----------0----------------------------------------|
A|----7-----------7-----------7----------------------------------------------|
D|--7-----------7-----------7------------------------------------------------|


SOLO 1 - roughly 2.50 in the song

D|---------------------------------------------------------------------------|
A|---------------------------------------------------------------------------|
G|---11\9\7\4/6/7/9/11---(break)---11\9\7/12\11\9\6/7------------------------|
D|---------------------------------------------------------------------------|
A|---------------------------------------------------------------------------|
D|---------------------------------------------------------------------------|

SOLO 2 - last part of the song

D|---------------------------------------------------------------------------|
A|---------------------------------------------------------------------------|
G|---11\9\7\4/6/7/9/11---(break)---11\9\7\4/6/7/9/7--------------------------|
D|---------------------------------------------------------------------------|
A|---------------------------------------------------------------------------|
D|---------------------------------------------------------------------------|


Enjoy!!
Related for Lovesong Of The Buzzard Live tab
×
Lovesong Of The Buzzard Live