Song name
# A B C D E F G H I J K L M N O P Q R S T U V W X Y Z

Iron And Wine - Faded From Winter tab

Iron and Wine - Faded From Winter

tabbed by Ford Cruz

Standard Tuning

this is definitely the easiest and best way to go
finger it hard using your thumb index and middle, cheers.. 
OUTRO SLIDE GUITAR NOT INCLUDED

Intro/Verse 1: 

e----------------------------------------------------------------------|
B----------------------------------------------------------------------|  
G--------0---0---0---0---0---0---0---0---0---0---0---0---0---0---0---0-|  X6 (2 intro then 4 verse)
D------4---4---4---4---2---2---2---2---0---0---0---0---0---0---0---0---| 
A-----2-2-2-2-2-2-2-2-0-0-0-0-0-0-0-0----------------------------------|
E-------------------------------------3-3-3-3-3-3-3-3-3-3-3-3-3-3-3-3--|

Chorus: X2

e--------2---5---2---5---0---2---0---2-------0-------0-------0-------0-|
B----------------------------------------3-------3-------3-------3-----|
G----------------------------------------------------------------------|  X2
D------4---4---4---4---2---2---2---2---0---0---0---0---0---0---0---0---|
A-----2-2-2-2-2-2-2-2-0-0-0-0-0-0-0-0----------------------------------|
E-------------------------------------3-3-3-3-3-3-3-3-3-3-3-3-3-3-3-3--|

Verse 2:
             *       *
e--------2---3---2---3---0---2---0---2-------0-------0-------0-------0-|
B----------------------------------------3-------3-------3-------3-----|
G----------------------------------------------------------------------|  X4
D------4---4---4---4---2---2---2---2---0---0---0---0---0---0---0---0---|
A-----2-2-2-2-2-2-2-2-0-0-0-0-0-0-0-0----------------------------------|
E-------------------------------------3-3-3-3-3-3-3-3-3-3-3-3-3-3-3-3--|

Bridge/Chorus 2:

e--------2---5---2---5---0---2---0---2-------0-------0-------0-------0-|
B----------------------------------------3-------3-------3-------3-----|
G----------------------------------------------------------------------|  X2
D------4---4---4---4---2---2---2---2---0---0---0---0---0---0---0---0---|
A-----2-2-2-2-2-2-2-2-0-0-0-0-0-0-0-0----------------------------------|
E-------------------------------------3-3-3-3-3-3-3-3-3-3-3-3-3-3-3-3--|

Outro/Verse 3:
             *       *
e--------2---3---2---3---0---2---0---2-------0-------0-------0-------0-|
B----------------------------------------3-------3-------3-------3-----|
G----------------------------------------------------------------------|  X4
D------4---4---4---4---2---2---2---2---0---0---0---0---0---0---0---0---|
A-----2-2-2-2-2-2-2-2-0-0-0-0-0-0-0-0----------------------------------|
E-------------------------------------3-3-3-3-3-3-3-3-3-3-3-3-3-3-3-3--|

daddy's ghost behind you
sleeping dog beside you
you're a poem of mystery
you're the prayer inside me

spoken words like moonlight
you're the voice that i like

needlework & seedlings
in the way you're walking
to me from the timbers
faded from the winter
Tap to rate this tab
# A B C D E F G H I J K L M N O P Q R S T U V W X Y Z