Song name
# A B C D E F G H I J K L M N O P Q R S T U V W X Y Z

Iron And Wine - The Trapeze Swinger tab

  	 Trapeze Swinger Tab by Iron And Wine, www.Ultimate-Guitar.Com

Send "Trapeze Swinger" to Cell Phone

-------------------------------------------------------------------------------
			     TRAPEZE SWINGER - Iron & Wine
-------------------------------------------------------------------------------
Tabbed by: carolinablu5

This is a tab from Iron & Wine at the Green Man Festival 08.17.2008 available for 
at http://www.youtube.com/watch?v=lnGXduu293c.

This is a wonderfully composed song with very vibrant song progression and vocals.  This 
the best version I have found and have studied it vigorously for a cameo performance of 
own within the set of a local band.
It is fundamentally different from the album version but is definitely more challenging 
rewarding to play

h = hammer on

Chords relative to capo

   C
e|--3--
B|--0--
G|--0--
D|--0--
A|--2--
E|--3--

   G
e|--3--
B|--0--
G|--0--
D|--0--
A|--2--
E|--3--

   F5
e|--0--
B|--0--
G|--0--
D|--0--
A|--3--
E|--1--

Tuning: Standard (Capo 3rd fret)

Verse Part 1 (play twice)
-----
   C                                 G
e|-------0----------------0--------|------3---------3----------------|
B|-1--------------0h1--------------|-----------------------------0---|
G|-----------0---------0-----0-----|-0---------------------0---------|
D|-----2-------2--------------2----|----0--------0------------0------|
A|-3-----------------3-------------|---------0h2------------------0h2|
E|---------------------------------|-3------------------3------------|

   F5                                C               G

e|----------------------------------|-------0---------------3--------|
B|-------0------------------0-------|-0h1----------------------------|
G|-0------------------0-------------|-----------0-----0--------------|
D|-----0-------0-----------0----0----|-----2-------2-------0-------0-|
A|---------------3----------------3-|-3-----------------------0h2----|
E|-1------------------1-------------|-----------------3==------------|

Verse Part 2 (play twice)
-------------------------
   Am                                 G
e|-------0----------------0--------|------3---------3----------------|
B|-1--------------0h1--------------|-----------------------------0---|
G|-----------2---------0-----2-----|-0---------------------0---------|
D|-----2-------2---------------2---|----0--------0------------0------|
A|-0-----------------0-------------|---------0h2------------------0h2|
E|---------------------------------|-3------------------3------------|

   F5                                C               G

e|----------------------------------|-------0---------------3--------|
B|-------0------------------0-------|-0h1----------------------------|
G|-0------------------0-------------|-----------0-----0--------------|
D|-----0------0-----------0----0----|-----2-------2-------0-------0--|
A|--------------3-----------------3-|-3-----------------------0h2----|
E|-1------------------1-------------|-----------------3--------------|

Note: repeat pattern throughout song.  Sam throws in small variations throughout to mix 
the monotony of the song.


C               G          F5
please remember me, happily
       C        G
by the rosebush laughing
     C              G                F5
with bruises on my chin, the time when
             C              G
we counted every black car passing
      Am                  G              F5
your house beneath the hill, and up until
         C                 G
someone caught us in the kitchen
      Am                G               F5
with maps, a mountain range, a piggy bank
         C              G
a vision too removed to mention


*credit jake denmark (version 2) for the template
Tap to rate this tab
# A B C D E F G H I J K L M N O P Q R S T U V W X Y Z