Song name
# A B C D E F G H I J K L M N O P Q R S T U V W X Y Z

Iron And Wine - Upward Over The Mountain tab

-------------------------------------------------------------------------------
			     Upward Over The Mountian - Iron And Wine
-------------------------------------------------------------------------------
Tabbed by:Nick
Email:

Tuning:standard

this is the slide part at the end of the song

2x
e|------------------------------------------------------------------------------|
B|-1/3-0~--1/3-1~--1/3-0~--1/3--------------------------------------------------|
G|------------------------------2-----------------------------------------------|
D|------------------------------------------------------------------------------|
A|------------------------------------------------------------------------------|
E|------------------------------------------------------------------------------|

2x
e|-----------------------------------------------------------------------------|
B|-----------------------------------------------------------------------------|
G|-0h2-4-2-4-5-5/7-7-7-5-5-4-0h2-----------------------------------------------|
D|-----------------------------------------------------------------------------|
A|-----------------------------------------------------------------------------|
E|-----------------------------------------------------------------------------|

2x
e|-----------------------------------------------------------------------------|
B|-----------------------------------------------------------------------------|
G|-0h2/4-4/5-4-0~-2-4/5-4-0~-2-4/5-4-2~----------------------------------------|
D|-----------------------------------------------------------------------------|
A|-----------------------------------------------------------------------------|
E|-----------------------------------------------------------------------------|

end with this
e|-----------------------------------------------------------------------------|
B|-----------------------------------------------------------------------------|
G|-----------------------------------------------------------------------------|
D|-4/5-4/5-2~------------------------------------------------------------------|
A|-----------------------------------------------------------------------------|
E|-----------------------------------------------------------------------------|
Tap to rate this tab
# A B C D E F G H I J K L M N O P Q R S T U V W X Y Z