Song name
# A B C D E F G H I J K L M N O P Q R S T U V W X Y Z

Iron And Wine - Naked As We Came tab

-------------------------------------------------------------------------------
			     Naked as we came - Iron and Wine
-------------------------------------------------------------------------------
Tabbed by: katie warren
Email: kbhwarren5@aol.com

capo II
Tuning: Drop D

 INTRO AND VERSE 1
(INTRO) play this 4 times for intro before the singing comes in for V1 
e|---------------------------------------------------------|-------------------------|
B|-----------3--------------3--------------3------------0--|---------0---------------|
G|----0--------------0---------------0------------0--------|------0------------------|
D|-------4--------------4---------------4------------4-----|--------0----------------|
A|--5---------------------------0--------------------------|-------------------------|
D|---------------0-----------------------------0-----------|----0--------------------|
>>>>>>>>>>>>>>>>>>>>>>>>>> play until arms.... and chorus
e|----------------------------------|----------------------------------------------|
B|--------0----------0---------0----|----------------------------------------------|
G|----0---------0---------0---------|----------------------------------------------|
D|------0---------0---------0-------|----------------------------------------------|
A|-----------2----------0-----------|----------------------------------------------|
D|--2-------------------------------|----------------------------------------------|
   arms....
e|-----------------0-------------|--------------------------------------------------|
B|----0----0---------0---0-------|--------------------------------------------------|
G|------0----0---------0---0-----|--------------------------------------------------|
D|------------0-------------0---|---------------------------------------------------|
A|-------------------------------|--------------------------------------------------|
D|-0------------------------------|-------------------------------------------------|
CHORUS
e|---------------------------------------------------------------------------------|
B|----------0----------0-------0-------0-------------------------------------------|
G|------0---------0--------0-------0-----------------------------------------------|
D|--------0---------0--------0-------0---------------------------------------------|
A|-------------------------2-------0-----------------------------------------------|
D|-0-------------2-----------------------------------------------------------------|

e|--------------0-------------------------------------------------------------------|
B|----0 -0--------0--0--------------------------------------------------------------|
G|-----0--0--------0--0-------------------------------------------------------------|
D|-0--------0-----------0-----------------------------------------------------------|
A|----------------------------------------------------------------------------------|
D|----------------------------------------------------------------------------------|
play 2 times before the singing comes in for V2
e|---------------------------------------------------------|-------------------------|
B|-----------3--------------3--------------3------------0--|---------0---------------|
G|----0--------------0---------------0------------0--------|------0------------------|
D|-------4--------------4---------------4------------4-----|--------0----------------|
A|--5---------------------------0--------------------------|-------------------------|
D|---------------0-----------------------------0-----------|----0--------------------|
>>>>>>>>>>>>>>>>>>>>>>>>>> play until arms.... and chorus again..
e|----------------------------------|----------------------------------------------|
B|--------0----------0---------0----|----------------------------------------------|
G|----0---------0---------0---------|----------------------------------------------|
D|------0---------0---------0-------|----------------------------------------------|
A|-----------2----------0-----------|----------------------------------------------|
D|--2-------------------------------|----------------------------------------------|
   arms....
e|-----------------0-------------|--------------------------------------------------|
B|----0----0---------0---0-------|--------------------------------------------------|
G|------0----0---------0---0-----|--------------------------------------------------|
D|------------0-------------0---|---------------------------------------------------|
A|-------------------------------|--------------------------------------------------|
D|-0------------------------------|-------------------------------------------------|
CHORUS
e|---------------------------------------------------------------------------------|
B|----------0----------0-------0-------0-------------------------------------------|
G|------0---------0--------0-------0-----------------------------------------------|
D|--------0---------0--------0-------0---------------------------------------------|
A|-------------------------2-------0-----------------------------------------------|
D|-0-------------2-----------------------------------------------------------------|

e|--------------0-------------------------------------------------------------------|
B|----0 -0--------0--0--------------------------------------------------------------|
G|-----0--0--------0--0-------------------------------------------------------------|
D|-0--------0-----------0-----------------------------------------------------------|
A|----------------------------------------------------------------------------------|
D|----------------------------------------------------------------------------------|
PLAY THIS 4 TIMES UNTIL END OF SONG on the 4th time slow it down and then play the chord
e|---------------------------------------------------------|-------------------------|
B|-----------3--------------3--------------3------------0--|---------0---------------|
G|----0--------------0---------------0------------0--------|------0------------------|
D|-------4--------------4---------------4------------4-----|--------0----------------|
A|--5---------------------------0--------------------------|-------------------------|
D|---------------0-----------------------------0-----------|----0--------------------|
                                                                     "strum this for the ending chord"
e|----------------------------------|-----------------------------------------------|
B|--------0----------0---------0----|---------3-------------------------------------|
G|----0---------0---------0---------|----0------------------------------------------|
D|------0---------0---------0-------|-------4---------------------------------------|
A|-----------2----------0-----------|--5--------------------------------------------|
D|--2-------------------------------|-----------------------------------------------|

LYRICS
verse1
She says "wake up, it's no use pretending"
I'll keep stealing, breathing her.
Birds are leaving over autumn's ending
One of us will die inside these arms

chorus...
Eyes wide open, naked as we came
One will spread our ashes 'round the yard

verse 2
She says "If I leave before you, darling
Don't you waste me in the ground"
I lay smiling like our sleeping children
One of us will die inside these arms

chorus...
Eyes wide open, naked as we came
One will spread our ashes round the yard

===============================================================================
Tap to rate this tab
# A B C D E F G H I J K L M N O P Q R S T U V W X Y Z