Song name
# A B C D E F G H I J K L M N O P Q R S T U V W X Y Z

Iron And Wine - Cinder And Smoke tab

e|-----------2---------------------2---------------|
B|--3-------------------3--------------------------|
G|-----4----------4----------4----------4----------|
D|--------4----------4----------4----------4-------|
A|-------------------------------------------------|
E|-------------------------------------------------|

e|-------------2---------------------2------------|
B|-----5-------------------5------------5---------|
G|--------4----------4----------4---------4-------|
D|-----------2---------2----------2---------------|
A|------------------------------------------------|
E|------------------------------------------------|

e|------------------------------------------------|
B|---2----------2---------2---------2-------------|
g|------2---------2---------2---------2-----------|
d|---------3---------3--------3---------3---------|
a|------------------------------------------------|
e|------------------------------------------------|

e|-------------2---------------------2------------|
B|-----5-------------------5------------5---------|
G|--------4----------4----------4---------4-------|
D|-----------2---------2----------2---------------|
A|------------------------------------------------|
E|------------------------------------------------|

 repeat  use the clip thingy and put it on the 2 frat.
Tap to rate this tab
# A B C D E F G H I J K L M N O P Q R S T U V W X Y Z