Song name
# A B C D E F G H I J K L M N O P Q R S T U V W X Y Z

Iron And Wine - As We Came tab

This is the other guy's tab just with a few corrections I noticed when playing.

Tuning should be standard EBGDAE

INTRO X4 & Verse X4
E|---------------------------------|--------------------------------|
B|-------3--------3-------3-------0|-------0-------0-------0-------0|
G|---0--------0-------0-------0----|---0-------0-------0-------0----|
D|-----4--------4-------4-------4--|-----0-------0-------0-------0--|
A|-5----------------0--------------|-----------------2-------0------|
E|---------0----------------0------|-2-------5----------------------|

CHORUS X4 

E|---------------0-----------------|--------------------------------|
B|-------0---------------0-------0-|-------0-------0-------0-------0|
G|---0-------0-------0-------0-----|---0-------0-------0-------0----|
D|-----2-------2-------2-------2---|-----0-------0-------0-------0--|
A|-0-------0-------0-------0-------|-----------------2-------0------|
E|---------------------------------|-2-------5----------------------|
Tap to rate this tab
# A B C D E F G H I J K L M N O P Q R S T U V W X Y Z