Song name
# A B C D E F G H I J K L M N O P Q R S T U V W X Y Z

Iron And Wine - Each Coming Night tab

Title: Each Coming Night
Artist: Iron & Wine
Song: Each coming night

Capo 2nd Fret. Emphasize the bass (thumb) line.

:::Periods (.) are the down beat and commas (,) are the off beat:::



Order of the Whole Song:

Intro:   Chorus 2 times

Verse 1: Chorus 5 times

Bridge   1 time

Verse 2: Chorus 5 times

Bridge   1 time

Solo:    2 times with chorus 4 times

Verse 3: Chorus 5 times

Bridge   (slow down)

Verse 4: Chorus 5 times
         (Speed UP)
Outro:    Chorus 4 times
         C Major Chord


Tabs relative to the Capo

Chorus: 
E|---------------------------------|---------------------------------|
B|-------1-------1-------1---------|-------0---------------0---------|
G|---0-------0-------2-----------0-|---------------------------------|
D|-----2-------2-------2-----2-----|---0-------0---2---0-------0---0-|
A|-3-------2-------0-----------0---|-----3-------3-------5-------0---|
E|-------------------------0-------|-1-------1-------3-------3-------|
   .   ,   .   ,   .   ,   .    ,    .   ,   .   ,   .   ,   .   ,   


Bridge:
E|---------------------------------|---------------------------------|
B|---------------0---------------0-|---------------0-----------------|
G|-------0---------------0---------|-------0---------------0---------|
D|---0-------0-------0-------0-----|---0-------0-------0-------0---0-|
A|-----3-------3-------3--------3--|-----5-------5-------5-------0---|
E|-1-------1-------1-------1-------|-3-------3-------3-------3-------|
   .   ,   .   ,   .   ,   .    ,    .   ,   .   ,   .   ,   .   ,   



Solo: on a separate guitar
E|---------------------------------|---------------------------------|
B|-----5p3-------------------------|---------------------------------|
G|-------------5---2-4---5------2-0|---------2---4---5---4---2-------|
D|---------------------------------|-3---5-----------------------5---|
A|---------------------------------|---------------------------------|
E|---------------------------------|---------------------------------|
   .   ,   .   ,   .   ,   .    ,    .   ,   .   ,   .   ,   .   ,   

  
E|---------------------------------|---------------------------------|
B|-----5p3-------------------------|---------------------------------|
G|-------------5---2-4---5------2-0|---------2---5---4---------------|
D|---------------------------------|-3---5-------------------5-------|
A|---------------------------------|---------------------------------|
E|---------------------------------|---------------------------------|
   .   ,   .   ,   .   ,   .    ,    .   ,   .   ,   .   ,   .   ,   

I used other tabs to create these.  These tabs are 100% correct
Tap to rate this tab
# A B C D E F G H I J K L M N O P Q R S T U V W X Y Z