Song name
# A B C D E F G H I J K L M N O P Q R S T U V W X Y Z

Iron And Wine - Trapeze Swinger tab

-------------------------------------------------------------------------------
			     TRAPEZE SWINGER - Iron & Wine
-------------------------------------------------------------------------------
Tabbed by: Jake Denmark

This is tabbed off the Live Sessions album available only from iTunes.
This song is beautiful, and I'm really happy to have another recording.
It's a nice sounding alternative to the original version, and it's
definitely more interesting to play.

Note: This is basically played in travis style picking except that the
1st note is held, skipping the 2nd eighth note. I've tried to show this
by using an equals sign (=) where the note is held longer. Also play the
0h2 hammer-on slowly, like two separate notes.



Tuning: Standard (Capo 2nd fret)

Intro
-----
   C                                 C
e|-------0-------------------------|-------3-------------------------|
B|-1==-----------1-------1---------|-1==---1-------1-------1---------|
G|-----------0-------0-------0-----|-----------0-------0-------0-----|
D|-----2-------2-------2-------2==-|-----2-------2-------2-------2==-|
A|-3==-----3-------3-------3-------|-3==-----3-------3-------3-------|
E|---------------------------------|---------------------------------|



Verse Part 1 (play twice)
-------------------------
   C                                 G

e|-------0---------------0---------|-------3-------3-----------------|
B|-1==-----------1-----------------|-0==-------------------0---------|
G|-----------0-------0-------0-----|---------------------------------|
D|-----2-------2-------2-------2==-|-----0-------0-------0-------0==-|
A|-3==-----3-------3-------3-------|---------0h2-------------0h2-----|
E|---------------------------------|-3==-------------3==-------------|

   F5                                C               G

e|---------------------------------|-------0---------------3---------|
B|-------0---------------0---------|-1==-------------0==-------------|
G|---------------0-----------------|-----------0---------------------|
D|-----0-----0-------0-------0-----|-----2-------2==-----0-------0==-|
A|-3==---------3-------3-------2==-|-3==-----3---------------0h2-----|
E|-1==-----1-------1-------1-------|-----------------3==-------------|



Verse Part 2 (play twice)
-------------------------
   Am                                G

e|-------0---------------0---------|-------3-------3-----------------|
B|-1==-----------1-----------------|-0==-------------------0---------|
G|-----------2-------2-------2-----|---------------------------------|
D|-----2-------2-------2-------2==-|-----0-------0-------0-------0==-|
A|-0==-----0-------0-------0-------|---------0h2-------------0h2-----|
E|---------------------------------|-3==-------------3==-------------|

   F5                                C               G

e|---------------------------------|-------0---------------3---------|
B|-------0---------------0---------|-1==-------------0==-------------|
G|---------------0-----------------|-----------0---------------------|
D|-----0-----0-------0-------0-----|-----2-------2==-----0-------0==-|
A|-3==---------3-------3-------2==-|-3==-----3---------------0h2-----|
E|-1==-----1-------1-------1-------|-----------------3==-------------|



C               G          F5
please remember me, happily 
       C        G
by the rosebush laughing 
     C              G                F5
with bruises on my chin, the time when 
             C              G
we counted every black car passing 
      Am                  G              F5
your house beneath the hill, and up until 
         C                 G
someone caught us in the kitchen
      Am                G               F5
with maps, a mountain range, a piggy bank 
         C              G
a vision too removed to mention
Tap to rate this tab
# A B C D E F G H I J K L M N O P Q R S T U V W X Y Z