Song name
# A B C D E F G H I J K L M N O P Q R S T U V W X Y Z

Iron And Wine - Free Until They Cut Me Down tab

k this is pretty easy so have fun
(standard tuning)

e)-------------|
B)-------------|
G)-------------|
D)-------------|(repeat through out song)
A)---2---2-----|
E)-0---3-------|

occasionally add in this to make it sound nice
e)-------------       e)-------------|
B)-------------       B)-------------|
G)-------------   or  G)-------------|
D)-------------       D)-------------|
A)-------------       A)----0h2------|
E)--3/5-5/7----       E)--3----------|

have fun experimenting
Tap to rate this tab
# A B C D E F G H I J K L M N O P Q R S T U V W X Y Z