Song name
# A B C D E F G H I J K L M N O P Q R S T U V W X Y Z

Iron And Wine - Such Great Hieghts tab

Help us improve GuitareTab! Take a short survey!
-------------------------------------------------------------------------------
			     Such Great Hieghts- Iron and Wine
-------------------------------------------------------------------------------
Tabbed by:OddBall
Email:euphoricradiofish@yahoo.com

This is my first tab ever!Because all the tabs I found online were crap, and in the 
key or, completley wrong picking patteren, or over complicated.

There are two guitars in this song, but this one pretty much is it.the second guitar has 
patteren really.This will definitley satisfy your needs, and you don't need a capo, 
you can sing along ( its hard though).

GOOD LUCK!


Tuning:

e|------------------2----------------------------------2------------------------|
B|--------2------------------2------------------2-----------------2-------------|
G|-------------3--------3-------3-------------------3--------3--------3---------|
D|-----4-----------------------------------4------------------------------------|
A|------------------------------------------------------------------------------|
E|------------------------------------------------------------------------------|

e|---------------------------------------------------------------------------|
B|----------------------6--------------------------------6-------------------|
G|------------6-------------------6---------------6-----------------6--------|
D|-----------------6---------6-------6--------------6----------6------6------|
A|-------4--------------------------------------4----------------------------|
E|---------------------------------------------------------------------------|

e|---------------------------------------------------------------------------|
B|------------------6---------------------------------6----------------------|
G|-----------6---------------6-----------------6---------------6-------------|
D|--------------6--------6------6------------------6--------6-----6----------|
A|---------------------------------------------------------------------------|
E|-------7----------------------------------7--------------------------------|

e|-----------------2------------------------------------------------------------|
B|---------2---------------2-------------------------------6--------------------|
G|-------------3--------3-----3----------------------6--------------6-----------|
D|-----4------------------------------------------------6-------6--------6------|
A|--------------------------------------------4---------------------------------|
E|------------------------------------------------------------------------------|
Related for Such Great Hieghts tab