Song name
# A B C D E F G H I J K L M N O P Q R S T U V W X Y Z

Iron And Wine - Communion Cups And Someones Coat tab

Communion Cup and Someone's Coat
by
Iron & Wine

Tabs by Joe Mac

This is my favorite of Iron & Wine.
I created these tabs because these ones don't require alternate tuning.  I hate retuning.
I don't see how else you could tune it to make it easier.  These seem more accurate too.  
The tabs may be a little harder than others versions, but you'll get the hang of it.

Here is a link to the song on youtube.  Listen to it to figure out the details.  Enjoy!
http://youtube.com/watch?v=LT9PjtkPhxA


Standard Tuning.  Capo on the 4th fret.  Tabs are relative to the capo.

e|-----------------|-----------------|-----------------|-3-----5-----3---|
B|-0-----3---------|-0h1p0-----------|-------3---------|---3-----3-------|
G|---0-------4-----|-------2p0-----0-|---0-------0-----|-----------------|
D|-----0-------5---|-----------0h2---|-----0-------0---|-----5-----5-----|
A|-3-------3-------|-----------------|-3-------3-------|-----------------|
E|-----------------|-3---------------|-----------------|-3---------------|
   . , . , . , . ,   . , . , . , . ,   . , . , . , . ,   . , . , . , . , 

e|-----------------|-----------------|-----------------|-3---------------|
B|-0-----3---------|-0h1p0-----------|-------3---------|-----3-------3---|
G|---0-------4-----|-------2p0-----0-|---0-------0-----|-----------------|
D|-----0-------5---|-----------0h2---|-----0-------0---|---------5-------|
A|-3-------3-------|-----------------|-3-------3-------|-----------------|
E|-----------------|-3---------------|-----------------|-3---------------|
   . , . , . , . ,   . , . , . , . ,   . , . , . , . ,   . , . , . , . , 




Chorus: play 2 times
e|-----------------|-----------------|-----------------|-----------------|
B|-0-----3---------|-0-----3---------|-0-----3-------0-|-------3---------|
G|---0-------4-----|---0-------4-----|---0-------4-----|---0-------4-----|
D|-----0-------5---|-----0-------5---|-----0-------5---|-----0-------5---|
A|-0-------0-------|-2-------2-------|-3-------3-------|-----------------|
E|-----------------|-----------------|-----------------|-----------------|
   . , . , . , . ,   . , . , . , . ,   . , . , . , . ,   . , . , . , . , 
Tap to rate this tab
# A B C D E F G H I J K L M N O P Q R S T U V W X Y Z