Song name
# A B C D E F G H I J K L M N O P Q R S T U V W X Y Z

Iron And Wine - Jesus The Mexican Boy tab

e|--0----0--0----2--3-----5--3---0---------------------|
B|-----------------------------------3---0-5p3-5--3----|
G|-----------------------------------------------------|
D|-----------------------------------------------------|
A|-----------------------------------------------------|
E|-----------------------------------------------------|


e|--0----0--0----2--3-----5--3---3---5---7--5----------|
B|--5------------------------------------------8--7p5--|
G|-----------------------------------------------------|
D|-----------------------------------------------------|
A|-----------------------------------------------------|
E|-----------------------------------------------------|


e|--0----0--0----2--3-----5--3---0---------------------|
B|-----------------------------------3---0--3p0--0-----|
G|-----------------------------------------------------|
D|-----------------------------------------------------|
A|-----------------------------------------------------|
E|-----------------------------------------------------|


e|--0----0--0----2--3-----5--3---3---5---7--5----------|
B|---------------------------------------------8--7p5--|
G|-----------------------------------------------------|
D|-----------------------------------------------------|
A|-----------------------------------------------------|
E|-----------------------------------------------------|

Thats pretty much the solo

Peace
Tap to rate this tab
# A B C D E F G H I J K L M N O P Q R S T U V W X Y Z