Song name
# A B C D E F G H I J K L M N O P Q R S T U V W X Y Z

Iron And Wine - Waiting For A Superman tab

Artist: Iron & Wine
Song: Waiting for a Superman
Standard tuning (Capo 3)
Tabbed by: Tyler Dempsey

Intro & Verse: "I ask you a question..."
e|------------------------------------------------------------------|
B|--------1-------1-------1-------1-------1-------1-------1-------1-|
G|----0-------0-------0-------0-------0-------0-------0-------0-----|
D|------2-------2-------2-------2-------2-------2-------2-------2---|
A|--3-------3-------3-------3-------3-------3-------3-------3-------|
E|------------------------------------------------------------------|


e|------------------------------------------------------------------|
B|--------1-------1-------1-------1-------1-------1-------1-------1-|
G|----2-------2-------2-------2-------0-------0-------0-------0-----|
D|------2-------2-------2-------2-------0-------0-------0-------0---|
A|--0-------0-------0-------0---------------------------------------|
E|----------------------------------3-------3-------3-------3-------|


Chorus:  "Is it gettin' heavy?"
e|------------------------------------------------------------------|
B|--------1-------1-------1-------1-------1-------1-------1-------1-|
G|----2-------2-------2-------2-------0-------0-------0-------0-----|
D|------3-------3-------3-------3-------2-------2-------2-------2---|
A|--3-------3-------3-------3-------3-------3-------3-------3-------|
E|------------------------------------------------------------------|


e|------------------------------------------------------------------|
B|--------1-------1-------1-------1-------1-------1-------1-------1-|
G|----2-------2-------2-------2-------0-------0-------0-------0-----|
D|------2-------2-------2-------2-------0-------0-------0-------0---|
A|--0-------0-------0-------0---------------------------------------|
E|----------------------------------3-------3-------3-------3-------|


e|------------------------------------------------------------------|
B|--------1-------1-------1-------1-------1-------1-------1-------1-|
G|----2-------2-------2-------2-------0-------0-------0-------0-----|
D|------3-------3-------3-------3-------2-------2-------2-------2---|
A|--3-------3-------3-------3-------3-------3-------3-------3-------|
E|------------------------------------------------------------------|


e|------------------------------------------------------------------|
B|--------1-------1-------1-------1-------1-------1-------1-------1-|
G|----0-------0-------0-------0-------0-------0-------0-------0-----|
D|------0-------0-------0-------0-------0-------0-------0-------0---|
A|------------------------------------------------------------------|
E|--3-------3-------3-------3-------3-------3-------3-------3-------|


Bridge:  "Tell everybody..."
e|------------------------------------------------------------------|
B|--------1-------1-------1-------1-------1-------1-------1-------1-|
G|----2-------2-------2-------2-------0-------0-------0-------0-----|
D|------2-------2-------2-------2-------0-------0-------0-------0---|
A|--0-------0-------0-------0---------------------------------------|
E|----------------------------------3-------3-------3-------3-------|


e|------------------------------------------------------------------|
B|--------1-------1-------1-------1-------1-------1-------1-------1-|
G|----2-------2-------2-------2-------0-------0-------0-------0-----|
D|------3-------3-------3-------3-------2-------2-------2-------2---|
A|--3-------3-------3-------3-------3-------3-------3-------3-------|
E|------------------------------------------------------------------|



Lyrics:
I asked you a question, but i didn't need you to reply
Is it gettin' heavy? but then i realized
Is it gettin' heavy?
Well, I thought it was already as heavy as can be

Is it overwhelming to use a crane to crush a fly?
It's a good time for Superman to lift the sun into the sky
Cause it's gettin heavy
Well, I thought it was already as heavy as can be

Tell everybody waitin' for superman
That they should try to hold on the best they can
He hasn't dropped them, forgot them, or anything
It's just too heavy for superman to lift
Tap to rate this tab
# A B C D E F G H I J K L M N O P Q R S T U V W X Y Z