Song name
# A B C D E F G H I J K L M N O P Q R S T U V W X Y Z

Iron And Wine - Love Song Of The Buzzard tab

Band: Iron and Wine
Song: The Love Song of the Buzzard
Tuning: DADGad
Capo: 2


     G    D    F    A
d|---0----0----0----0-|
A|---0----0----0----0-|
G|---0----2----0----0-|
D|---4----0----0----0-|
A|---5----0----2----7-|
D|---5----0----2----7-|

Picking:

     G
d|---------0-----------------------0--------------|
A|------------------------------------------------|
G|---0-----------------0-----------------------0--|
D|---------------4-----------4-----------4--------|
A|------5-----------5-----------5-----------5-----|
D|---5--------5-----------5-----------5-----------|

     D
d|---------0-----------2p0-----------------4-----4-----------2p0-----0-----------|
A|---0-------------------------0-------------------------------------------------|
G|---------------2-------------------2-----------------2-------------------2-----|
D|------0-----------0-------0-----------0-----0-----------0-------0-----------0--|
A|---0--------0--------0----------0--------0--------0--------0----------0--------|
D|-------------------------------------------------------------------------------|

Use the same picking pattern as the G for both the F and A


Intro:  G  D  G  D

G
  In the failing light
              D
of the afternoon
G
  Lucy and the shade
                  D
of the dogwood blooms
F                G
  Yesterday the solace
             D
of a poison fish
F                   G
  Tomorrow i'll be kissing
                   A
on your blood red lips

G
  And noone has the savior
                    D
they would like to be
G
  The love song of the buzzard
                  D
and the dogwood tree
F                          G
  With the train of horses laughing
                     D
through the traffic light
F                     G
  And the cradles unimaginative
           A
sense of time
Tap to rate this tab
# A B C D E F G H I J K L M N O P Q R S T U V W X Y Z