Song name
# A B C D E F G H I J K L M N O P Q R S T U V W X Y Z

Iron And Wine - Pagan Angel And A Borrowed Car tab

Band: Iron and Wine
Song: Pagan Angel and a Borrowed Car
Tuning: DADGBd
Capo 4

this song consists of 2 riffs:

Riff 1:

d|------------------------|
B|------------------------|
G|------0h2---------------|
D|-----------------5p4p0--|
A|---0-------0--0---------|
D|---0-------0--0---------|

Riff 2 (im not 100% on this riff):

d|--------------------------|
B|--------------------------|
G|------5-/-7--7-/-5--0-----|
D|-----------------------4--|
A|---0---------0---------0--|
D|---0---------0---------0--|
Tap to rate this tab
# A B C D E F G H I J K L M N O P Q R S T U V W X Y Z