Song name
# A B C D E F G H I J K L M N O P Q R S T U V W X Y Z

Iron And Wine - Faded From The Winter tab

this is my fav iron and wine song. great song, took a while
to figure out so please appreciate it. i couldnt find a tab
for it and thats why i made it. enjoy. please rate me.
if there's any questions or problems feel free to
email me at boarderx8@msn.com
thanks.

Standard tuning- E A D G B e

verse:

e----------------------------------------------------------------------|
B----------------------------------------------------------------------|
G-------0---0---0---0---0---0---0---0---0---0---0---0---0---0---0---0--| x6
D------4---4---4---4---4---4---4---4---4---4---4---4---4---4---4---4---|
A-----5---5---5---5---5---5---5---5---5---5---5---5---5---5---5---5----|
E----7---7---7---7---5---5---5---5---3---3---3---3---3---3---3---3-----|

Chorus:
e-----------------------------------------------------------------------|
B-----------------------------------------------------------------------|
G-----------------------0---0---0---0---0---0---0---0---0---0---0---0---| x2
D------0---0---0---0---4---4---4---4---4---4---4---4---4---4---4---4----|
A-----4-4-4-4-4-4-4-4-5---5---5---5---5---5---5---5---5---5---5---5-----|
E----5---5---5---5---5---5---5---5---3---3---3---3---3---3---3---3------|


verse 2:

e----------------------------------------------------------------------|
B----------------------------------------------------------------------|
G-------0---0---0---0---0---0---0---0---0---0---0---0---0---0---0---0--| x4
D------4---4---4---4---4---4---4---4---4---4---4---4---4---4---4---4---|
A-----5---5---5---5---5---5---5---5---5---5---5---5---5---5---5---5----|
E----7---7---7---7---5---5---5---5---3---3---3---3---3---3---3---3-----|

Chorus:
e-----------------------------------------------------------------------|
B-----------------------------------------------------------------------|
G-----------------------0---0---0---0---0---0---0---0---0---0---0---0---| x2
D------0---0---0---0---4---4---4---4---4---4---4---4---4---4---4---4----|
A-----4-4-4-4-4-4-4-4-5---5---5---5---5---5---5---5---5---5---5---5-----|
E----5---5---5---5---5---5---5---5---3---3---3---3---3---3---3---3------|

verse 3:
e----------------------------------------------------------------------|
B----------------------------------------------------------------------|
G-------0---0---0---0---0---0---0---0---0---0---0---0---0---0---0---0--| x4
D------4---4---4---4---4---4---4---4---4---4---4---4---4---4---4---4---|
A-----5---5---5---5---5---5---5---5---5---5---5---5---5---5---5---5----|
E----7---7---7---7---5---5---5---5---3---3---3---3---3---3---3---3-----|


End on this:

e--------|
B--------|
G---0~---|
D---4~---|
A---5~---|
E---7~---|


During the song u can hear a second guitar doing a bit of this:

e-----------------------------------|
B--7-8-7-8-5-7-5-7-3-5-3-5-3-5-3-5--|
G-----------------------------------|
D-----------------------------------|
A-----------------------------------|
E-----------------------------------|


this is the solo guitar starting at 2:08 with a slider:

e------------------------------------------------|
B------------------------------------------------|
G---/11--11/14--14\12--11/12--12/14-14\11--11/14-|
D------------------------------------------------|
A------------------------------------------------|
E------------------------------------------------|

continued:

e-----------------------------|
B-----------------------------|
G--14\12--12-11/12--12/14-11--|
D-----------------------------|
A-----------------------------|
E-----------------------------|


second part of solo with slider:

e----------------------------------------------------------------|
B----------------------------------------------------------------|
G---14/16-16-16-16-19-16-16-19-16-12/14-14-14-14-16-14-14-16-14--|
D----------------------------------------------------------------|
A----------------------------------------------------------------|
E----------------------------------------------------------------|

continued:

e----------------------------------|
B----------------------------------|
G---11/12-12-12-12-14-12-12-14-12--|
D----------------------------------|
A----------------------------------|
E----------------------------------|
Tap to rate this tab
# A B C D E F G H I J K L M N O P Q R S T U V W X Y Z