Song name
# A B C D E F G H I J K L M N O P Q R S T U V W X Y Z

Iron And Wine - Evening On The Ground tab

Verse:
-------------------------|
-------------------------|
-------------------------|  REPEAT
---------5---------------|  MANY TIMES
---0h5h7---7-0-0h5h7---0-|
---------------------0---|


Chorus:  "But I'll only lie down by the waterside at night"
-----------------------------------------------|
-----------------------------------------------|
-----------------------------------------------|
---------------5---------5---------5---------5-|
-----------5h7-------5h7-------5h7-------5h7---|
-------3-3-------3-3-------2-2-------2-2-------|
                                                   REPEAT
-----------------------------------------------|
-----------------------------------------------|
-----------------------------------------------|
-----------------------------------------------|
-----------5---------------------5-------------|
---0-0h5h7---7-0-0h5h7---0-0h5h7---7-0-0h5h7---|
-0---------------------0---------------------0-|
Tap to rate this tab
# A B C D E F G H I J K L M N O P Q R S T U V W X Y Z