Song name
# A B C D E F G H I J K L M N O P Q R S T U V W X Y Z

Iron Butterfly - Unconscious Power tab

Help us improve GuitareTab! Take a short survey!
Iron Butterfly - Unconscious Power

This is Iron Butterflys Unconscious Power.
  Intro/Verse
G|--------------------|
D|-------2---2--------|
A|---------2---5-3-0-2|
E|-0-2-3--------------|

Chorus    
    Triggering the unconscious power
G|----------------------------------------|
D|----------------------------------------|
A|---------3-------5-----------0--------2-|
E|--0-------------------------------0-----|

For the solo just imporovise!

Enjoy!!

^_^
Related for Unconscious Power tab