Song name
# A B C D E F G H I J K L M N O P Q R S T U V W X Y Z

Iron Cross - Waves Of Change tab

Iron Cross- Waves of Change

Not that many people have heard of this band but for those who have, here 
you go:
      NOTES: after he plays the first guitar part 2 times the second guitar parts come in.

INTRO:
1st GUITAR

E-----------------         
G-----------------         
D-----------------         
A--2-2-2-2-2-2-2-2 
E-0-0-0-0-3-3-2-2-
  REPEAT 6 TIMES

INTRO:
2nd GUITAR

E-0-0-0-0-0-0-0-0-3-3-3-3-2-2-2-2-------------------------------
G--------------------------------3-3-3-3-3-3-3-3-1-1-1-1-4-4-4-4
D---------------------------------------------------------------
A---------------------------------------------------------------
E---------------------------------------------------------------
  REPEAT TWICE, come in after the first guitar part is played twice.

Verse:
1st GUITAR

E-----------------
B-----------------         
G-----------------         
D-----------------         
A--2-2-2-2-2-2-2-2 
E-0-0-0-0-3-3-2-2-
  PLAY THIS ALL THROUGH THE VERSES

Verse:
2nd GUITAR

E-0-0-0-0-0-0-0-0-3-3-3-3-2-2-2-2-------------------------------
B--------------------------------3-3-3-3-3-3-3-3-1-1-1-1-4-4-4-4
G---------------------------------------------------------------
D---------------------------------------------------------------
A---------------------------------------------------------------
E---------------------------------------------------------------
  PLAY THIS ALL THROUGH THE VERSES, come in the same time as first guitar.

Chorus:
1st GUITAR

E----------------------------
B----------------------------
G----------------------------
D----------------------------
A-2-2-2-2-2-2-2-2-4-4-2-2-2-2
E-0-0-0-0-0-0-0-0-5-5-3-3-3-3
PLAY THIS TWICE

Tabbed by MSR
Tap to rate this tab
# A B C D E F G H I J K L M N O P Q R S T U V W X Y Z