Song name
# A B C D E F G H I J K L M N O P Q R S T U V W X Y Z

Iron Horse - Another Version tab

by dave koroczynsky

"Another Version"

sort of a solo thing...
the verse it palm muted on the power chords

verse 1
e---------------------------------------------------------------------------|
B---------------------------------------------------------------------------|
G---------------------------------------------------------------------------|
D---------------------------------------------------------------------------|
A----9-9-9-9-9-9-9-9-9-9-7---------------------------9-9-9-9-9-9-9-9--------|
E----7-7-7-7-7-7-7-7-7-----9-7b-5--------------------7-7-7-7-7-7-7-7--------|

e----------------------------------------------------------------------------|
B----------------------------------------------------------------------------|
G----------------------------------------------------------------------------|
D-----2-4-2-0----------------9-9-9-9-9-9-9-9-9-7-7-9-7-7h9p7-----------------|
A-0-2---------2p0------------7-7-7-7-7-7-7-7-----------------9-7-7-9-7-7h9p7-|
E----------------------------------------------------------------------------|

e---------------------------------------------------------------------------|
B---------------------------------------------------------------------------|
G---------------------------------------------------------------------------|
D---------------------------------------------------------------------------|
A-9-9-9-9-9-9-9-9-----------------------------------------------------------|
E-7-7-7-7-7-7-7-7-1slide12b-------------------------------------------------|
(play twice)

(chourus)
e---------------------------------------------------------------------------|
B---------------------------------------------------------------------------|
G---------------------------------------------------------------------------|
D---------------------------------------------------------------------------|
A-11--12--9--11--11--12--9-9h11p-7---11--12b--9--11b--11--12--9-9h11p-7-----|
E---------------------------------------------------------------------------|

e---------------------------------------------------------------------------|
B---------------------------------------------------------------------------|
G---------------------------------------------------------------------------|
D---------------------------------------------------------------------------|
A----9-9-9-9-9-9-9-9-9-9-7---------------------------9-9-9-9-9-9-9-9--------|
E----7-7-7-7-7-7-7-7-7-----9-7b-5--------------------7-7-7-7-7-7-7-7--------|

e----------------------------------------------------------------------------|
B----------------------------------------------------------------------------|
G----------------------------------------------------------------------------|
D-----2-4-2-0----------------9-9-9-9-9-9-9-9-9-7-7-9-7-7h9p7-----------------|
A-0-2---------2p0------------7-7-7-7-7-7-7-7-----------------9-7-7-9-7-7h9p7-|
E----------------------------------------------------------------------------|

e---------------------------------------------------------------------------|
B---------------------------------------------------------------------------|
G---------------------------------------------------------------------------|
D---------------------------------------------------------------------------|
A-9-9-9-9-9-9-9-9-----------------------------------------------------------|
E-7-7-7-7-7-7-7-7-1slide12b-------------------------------------------------|
(play twice)

(chorus)

(solo)

e---------------------------------------------12hold-note-until-next-lines--|
B---9---7---5-7-8-7-5-7-8p7p5-3-5-------------------------------------------|
G---------------------------------5-3---------------------------------------|
D-------------------------------------3-5b----------------------------------|
A---------------------------------------------------------------------------|
E---------------------------------------------------------------------------|

(tapping)
e---h15p12h14p12h5p12h14p12h17p14h16p14h17p14h16p14h15p12h14p12h15p12h14-15--|b
B----------------------------------------------------------------------------|
G----------------------------------------------------------------------------|
D----------------------------------------------------------------------------|
A----------------------------------------------------------------------------|
E----------------------------------------------------------------------------|

e--15b-12-13---------------------15h17p15-17-19-21b-hold-note-until-verse---|
B------------15-13-------15--17---------------------------------------------|
G------------------14b------------------------------------------------------|
D---------------------------------------------------------------------------|
A---------------------------------------------------------------------------|
E---------------------------------------------------------------------------|

verse 3
e---------------------------------------------------------------------------|
B---------------------------------------------------------------------------|
G---------------------------------------------------------------------------|
D---------------------------------------------------------------------------|
A----9-9-9-9-9-9-9-9-9-9-7---------------------------9-9-9-9-9-9-9-9--------|
E----7-7-7-7-7-7-7-7-7-----9-7b-5--------------------7-7-7-7-7-7-7-7--------|

e----------------------------------------------------------------------------|
B----------------------------------------------------------------------------|
G----------------------------------------------------------------------------|
D-----2-4-2-0----------------9-9-9-9-9-9-9-9-9-7-7-9-7-7h9p7-----------------|
A-0-2---------2p0------------7-7-7-7-7-7-7-7-----------------9-7-7-9-7-7h9p7-|
E----------------------------------------------------------------------------|

e---------------------------------------------------------------------------|
B---------------------------------------------------------------------------|
G---------------------------------------------------------------------------|
D---------------------------------------------------------------------------|
A-9-9-9-9-9-9-9-9-----------------------------------------------------------|
E-7-7-7-7-7-7-7-7-1slide12b-------------------------------------------------|
(play once)

(chorus)

END.
Tap to rate this tab
# A B C D E F G H I J K L M N O P Q R S T U V W X Y Z