Song name
# A B C D E F G H I J K L M N O P Q R S T U V W X Y Z

Iron Maiden - Cross Eyed Mary tab

Help us improve GuitareTab! Take a short survey!
----------------------------------------------------------------------------
                          Cross-Eyed Mary - Iron Maiden
----------------------------------------------------------------------------
Tabbed by: Napalm890


Tuning: Standard


     
E||------------------------------------------------------
B||--7h-11p-7h-11p-7h-11p-7h-11p-7h-11p-7h-11p-7h-11p-7h-
G||------------------------------------------------------
D||------------------------------------------------------
A||------------------------------------------------------
E||------------------------------------------------------
                                                             x4
---------------------------9/----14-13-12-|
--7h-11p-7h-11p-7h-11p-7h-----------------|
------------------------------------------|
------------------------------------------|
------------------------------------------|
------------------------------------------|

------------------------------------------|
------------------------------------------|
------------------------------------------|
--11-11---x--11-11---x-11-11---x-11-10----| 
---9--9---x---9--9---x--9--9---x--9--8----|
------------------------------------------|
                                                 x2
------------------------------------------|
------------------------------------------|
------------------------------------------|
------------------------------------------| 
--10-10---x-10-10---x-10-10---x-10-10-x---|
---8--8---x--8--8---x--8--8---x--8--8-x---|


------------------------------------------|
------------------------------------------|
------------------------------------------|
--7-7---x-7-7---x-7-7---x-7-7---x---------|
--5-5---x-5-5---x-5-5---x-5-5---x---------|
------------------------------------------|
                                                 x2     
------------------------------------------|
------------------------------------------|
------------------------------------------|
------------------------------------------|
--8-8---x-8-8---x-8-8---x-8-8---x---------|
--6-6---x-6-6---x-6-6---x-6-6---x---------|



| /  slide up
| \  slide down
| h  hammer-on
| p  pull-off
| ~  vibrato
| +  harmonic
| x  Mute note
============================================================================
Related for Cross Eyed Mary tab