Song name
# A B C D E F G H I J K L M N O P Q R S T U V W X Y Z

Iron Maiden - Sanctuary tab

                               Sanctuary                                     
                              Iron Maiden

Duration Legend
---------------
W - whole
H - half
Q - quarter
E - 8th
S - 16th
T - 32nd
X - 64th
. - note dotted
|-n-|  - n-tuplets


Tablature Legend
----------------
L - tied note
x - dead note
g - grace note
(n) - ghost note
> - accentuded note
NH - natural harmonic
AH - artificial harmonic
TH - tapped harmonic
SH - semi harmonic
PH - pitch harmonic
h - hammer on
p - pull off
b - bend
br - bendRelease
pb - preBend
pbr - preBendRelease
brb - bendReleaseBend
\n/ - tremolo bar dip
\n - tremolo bar dive
-/n - tremolo bar Release up
/n\ - tremolo bar inverted dip
/n - tremolo bar return
-\n - tremolo bar Release down
S - shift slide
s - legato slide
/ -  slide into from below or out of upwards
\ -  slide into from above or out of downwards
~ - vibrato
W - wide vibrato
tr - trill
TP - tremolo picking
T - tapping
S - slap
P - pop
< - fade in
^ - brush up
v - brush down



          Intro                                                           
     S    S     S S E.  S S S S S E.  S S    S S S E.  S S S S S E.  S S  
E||----|----------------------------------|------------------------------|
B||----|----------------------------------|------------------------------|
G||----|--2-----2---2-------2-2---2-------|--2-2---2-------2-2---2-------|
D||----|--0-----0---0-------0-0---0-------|--0-0---0-------0-0---0-------|
A||----|----------3-----0-3-----3-----0-3-|------3-----0-3-----3-----0-3-|
E||----|----------------------------------|------------------------------|


  S S S E.  S S S S S E.  S S    S S S E.  S S S S S E.  S S  
------------------------------|------------------------------|
------------------------------|------------------------------|
--2-2---2-------2-2---2-------|--2-2---2-------2-2---2-------|
--0-0---0-------0-0---0-------|--0-0---0-------0-0---0-------|
------3-----0-3-----3-----0-3-|------3-----0-3-----3-----0-3-|
------------------------------|------------------------------|


  Verse Riff                                                           
  S          S S E.  S S S S S E.  S S    S S S E.  S S S S S E.  S S  
---------------------------------------|------------------------------|
---------------------------------------|------------------------------|
--2----------2---2-------2-2---2-------|--2-2---2-------2-2---2-------|
--0----------0---0-------0-0---0-------|--0-0---0-------0-0---0-------|
---------------3-----0-3-----3-----0-3-|------3-----0-3-----3-----0-3-|
---------------------------------------|------------------------------|


  S S S E.  S S S S S E.  S S    S S S E.  S S S S S E.  S S  
------------------------------|------------------------------|
------------------------------|------------------------------|
--2-2---2-------2-2---2-------|--2-2---2-------2-2---2-------|
--0-0---0-------0-0---0-------|--0-0---0-------0-0---0-------|
------3-----0-3-----3-----0-3-|------3-----0-3-----3-----0-3-|
------------------------------|------------------------------|


  Bridge                                                        
  E      S E.  S S E  S E.  S S    S S S E.  S S S S S E.  S S  
--------------------------------|------------------------------|
--------------------------------|------------------------------|
--------------------------------|--2-2---2-------2-2---2-------|
--------------------------------|--0-0---0-------0-0---0-------|
--3--------3-------5----5-------|------3-----0-3-----3-----0-3-|
--1------1-1---1-1-3--3-3---3-3-|------------------------------|


  E  S E.  S S E  S E.  S S    W                   W                 
----------------------------|-------------------|-------------------|
----------------------------|-------------------|-------------------|
----------------------------|--2----------------|-------------------|
----------------------------|--2----------------|-------------------|
--3----3-------5----5-------|--0----------------|-------------------|
--1--1-1---1-1-3--3-3---3-3-|-------------------|-------------------|


  Repeat Intro                                                           
  S            S S E.  S S S S S E.  S S    S S S E.  S S S S S E.  S S  
-----------------------------------------|------------------------------|
-----------------------------------------|------------------------------|
--2------------2---2-------2-2---2-------|--2-2---2-------2-2---2-------|
--0------------0---0-------0-0---0-------|--0-0---0-------0-0---0-------|
-----------------3-----0-3-----3-----0-3-|------3-----0-3-----3-----0-3-|
-----------------------------------------|------------------------------|


  S S S E.  S S S S S E.  S S    S S S E.  S S S S S E.  S S  
------------------------------|------------------------------|
------------------------------|------------------------------|
--2-2---2-------2-2---2-------|--2-2---2-------2-2---2-------|
--0-0---0-------0-0---0-------|--0-0---0-------0-0---0-------|
------3-----0-3-----3-----0-3-|------3-----0-3-----3-----0-3-|
------------------------------|------------------------------|


  Verse Riff                                                           
  S          S S E.  S S S S S E.  S S    S S S E.  S S S S S E.  S S  
---------------------------------------|------------------------------|
---------------------------------------|------------------------------|
--2----------2---2-------2-2---2-------|--2-2---2-------2-2---2-------|
--0----------0---0-------0-0---0-------|--0-0---0-------0-0---0-------|
---------------3-----0-3-----3-----0-3-|------3-----0-3-----3-----0-3-|
---------------------------------------|------------------------------|


  S S S E.  S S S S S E.  S S    S S S E.  S S S S S E.  S S  
------------------------------|------------------------------|
------------------------------|------------------------------|
--2-2---2-------2-2---2-------|--2-2---2-------2-2---2-------|
--0-0---0-------0-0---0-------|--0-0---0-------0-0---0-------|
------3-----0-3-----3-----0-3-|------3-----0-3-----3-----0-3-|
------------------------------|------------------------------|


  Bridge                                                        
  E      S E.  S S E  S E.  S S    S S S E.  S S S S S E.  S S  
--------------------------------|------------------------------|
--------------------------------|------------------------------|
--------------------------------|--2-2---2-------2-2---2-------|
--------------------------------|--0-0---0-------0-0---0-------|
--3--------3-------5----5-------|------3-----0-3-----3-----0-3-|
--1------1-1---1-1-3--3-3---3-3-|------------------------------|


  E  S E.  S S E  S E.  S S    W                   W                 
----------------------------|-------------------|-------------------|
----------------------------|-------------------|-------------------|
----------------------------|--2----------------|-------------------|
----------------------------|--2----------------|-------------------|
--3----3-------5----5-------|--0----------------|-------------------|
--1--1-1---1-1-3--3-3---3-3-|-------------------|-------------------|


  Chorus                                                      
  E      S E.  S S E  S E.  S S    E  S E.  S S E  S E.  S S  
--------------------------------|----------------------------|
--------------------------------|----------------------------|
--2--------2--------------------|--2----2-------7----7-------|
--2--------2-------5----5-------|--2----2-------7----7-------|
--0------0-0---0-0-5----5-------|--0--0-0---0-0-5--5-5---5-5-|
-------------------3--3-3---3-3-|----------------------------|


  E  S E.  S S E  S E.  S S    E  S E.  S S E  S E.  S S  
----------------------------|----------------------------|
----------------------------|----------------------------|
--2----2--------------------|--2----2-------7----7-------|
--2----2-------5----5-------|--2----2-------7----7-------|
--0--0-0---0-0-5----5-------|--0--0-0---0-0-5--5-5---5-5-|
---------------3--3-3---3-3-|----------------------------|


  E.  E.  E.  E.  E  E     E.  E.  E.  E.  E  E     W                 
------------------------|------------------------|-------------------|
------------------------|------------------------|-------------------|
--9---7---9---7---9--7--|--7---5---7---5---5--4--|--2----------------|
--9---7---9---7---9--7--|--7---5---7---5---5--4--|--2----------------|
--7---5---7---5---7--5--|--5---3---5---3---3--2--|--0----------------|
------------------------|------------------------|-------------------|


  Rhythm Under Solo 1                                                           
  S                   S S E.  S S S S S E.  S S    S S S E.  S S S S S E.  S S  
------------------------------------------------|------------------------------|
------------------------------------------------|------------------------------|
--2-------------------2---2-------2-2---2-------|--2-2---2-------2-2---2-------|
--0-------------------0---0-------0-0---0-------|--0-0---0-------0-0---0-------|
------------------------3-----0-3-----3-----0-3-|------3-----0-3-----3-----0-3-|
------------------------------------------------|------------------------------|


  S S S E.  S S S S S E.  S S    S S S E.  S S S S S E.  S S  
------------------------------|------------------------------|
------------------------------|------------------------------|
--2-2---2-------2-2---2-------|--2-2---2-------2-2---2-------|
--0-0---0-------0-0---0-------|--0-0---0-------0-0---0-------|
------3-----0-3-----3-----0-3-|------3-----0-3-----3-----0-3-|
------------------------------|------------------------------|


  S S S E.  S S S S S E.  S S    S S S E.  S S S S S E.  S S  
------------------------------|------------------------------|
------------------------------|------------------------------|
--2-2---2-------2-2---2-------|--2-2---2-------2-2---2-------|
--0-0---0-------0-0---0-------|--0-0---0-------0-0---0-------|
------3-----0-3-----3-----0-3-|------3-----0-3-----3-----0-3-|
------------------------------|------------------------------|


  S S S E.  S S S S S E.  S S    S S S E.  S S S S S E.  S S  
------------------------------|------------------------------|
------------------------------|------------------------------|
--2-2---2-------2-2---2-------|--2-2---2-------2-2---2-------|
--0-0---0-------0-0---0-------|--0-0---0-------0-0---0-------|
------3-----0-3-----3-----0-3-|------3-----0-3-----3-----0-3-|
------------------------------|------------------------------|

   Solo 1                                                                       
   S      S   T   T  S   S   T   T  S   S   T   T  S   S   T   T  S   S  T   T  
--------------------------------------------------------------------------------
---------10h-13p-10-----10h-13p-10-----10h-13p-10-----10h-13p-10-----10-13p-10--
--11b---------------11b------------11b------------11b------------11b-----------1
--------------------------------------------------------------------------------
--------------------------------------------------------------------------------
--------------------------------------------------------------------------------


   S  T   T  S   S  T   T  S   S  T   T  H           
----------------------------------------------------|
--10-13p-10-----10-13p-10-----10-13p-10-------------|
------------11b-----------11b-----------11b~--------|
----------------------------------------------------|
----------------------------------------------------|
----------------------------------------------------|


   |---3--|   |--3--|  |----3----|                    
   S   S  S   S  S  S  S  S  E   E    Q     E   S  S  
----------------13----13-15b-L--15b--15b----L--15-13-|
---------13h-15----15--------------------------------|
--12h-14---------------------------------------------|
-----------------------------------------------------|
-----------------------------------------------------|
-----------------------------------------------------|


   S  S  S  S  S  S  S  S  S   S  E    E   E    
--13----13-------------------------------------|
-----15----15-13----13-------------------------|
-----------------14----14-12h-14-12~---L--12\--|
-----------------------------------------------|
-----------------------------------------------|
-----------------------------------------------|


   E    S  E    S  E    S  E    S  E    S  S   
-------18------18------18------18------18-----|
--18b-----18b-----18b-----18b-----18b-----18b-|
----------------------------------------------|
----------------------------------------------|
----------------------------------------------|
----------------------------------------------|


   S  S  E    S  E    S  E    S  S   Q     
-----18------18------18------18-----------|
---L----18b-----18b-----18b-----18b~-L----|
------------------------------------------|
------------------------------------------|
------------------------------------------|
------------------------------------------|


   tr        tr        tr        tr        
   Q         Q         Q         Q         
----------------------14(17)----17(20)----|
------------14(17)------------------------|
--14(16)----------------------------------|
------------------------------------------|
------------------------------------------|
------------------------------------------|


               |----3---|                  
   E    S  S   E   E    E    H             
--20b--20-20b--L--20b--20b--20brb~--------|
------------------------------------------|
------------------------------------------|
------------------------------------------|
------------------------------------------|
------------------------------------------|
   

Solo 2                                      
   H           Q      S  T   T   T   T   T  T  
----------------------------------------------|
--15br--------15b~----L-12h-15p-12h-15p-12----|
-------------------------------------------14-|
----------------------------------------------|
----------------------------------------------|
----------------------------------------------|


   T   T   T   T   T  T  T   T   T   T   T  T  T   T   T   T   T  T  T   T   T  
--------------------------------------------------------------------------------
--12h-15p-12h-15p-12----12h-15p-12h-15p-12----12h-15p-12h-15p-12----12h-15p-12h-
---------------------14--------------------14--------------------14-------------
--------------------------------------------------------------------------------
--------------------------------------------------------------------------------
--------------------------------------------------------------------------------


   E    E     S  S  E    E   T   T   T   T  T   T  T   T   T   T  T   T  
------------------------------------------------------------------------|
--17b--17b~---L-17-17br--L--17p-15h-17p-15--------17p-15h-17p-15--------|
-------------------------------------------16h-17----------------16h-17-|
------------------------------------------------------------------------|
------------------------------------------------------------------------|
------------------------------------------------------------------------|


                                  |---3---|  
   Q      S  S  E    S  S  E  E   S   S   S  
--------------------20----------------------|
---------------20b-----20b-L--L--17h-20p-17-|
--17b----17-19------------------------------|
--------------------------------------------|
--------------------------------------------|
--------------------------------------------|


         |---3---|        |---3---|        |---3---|          
   E     S   S   S  E     S   S   S  E     S   S   S  Q       
-------------------------------------------------------------|
--20br--17h-20p-17-20br--17h-20p-17-20br--17h-20p-17-20b~----|
-------------------------------------------------------------|
-------------------------------------------------------------|
-------------------------------------------------------------|
-------------------------------------------------------------|


                                 Interlude 1                        
   S  S   E   H.                 E.          E.   E   E.   E.   E   
--20-------------------------|--15-------------------14------------|
-----20br-L--20b~------------|--------------15------------15-------|
-----------------------------|-------------------14------------14--|
-----------------------------|-------------------------------------|
-----------------------------|-------------------------------------|
-----------------------------|-------------------------------------|


  E.  E.  E  E.  E.  E      E.   E.   E   E.   E.   E   
--3----------2----------|--15------------14------------|
------3----------3------|-------15------------15-------|
----------2----------2--|------------14------------14--|
------------------------|------------------------------|
------------------------|------------------------------|
------------------------|------------------------------|


                            Interlude 2                    
  E.  E.  E  E.  E.  E      E.         E.  E  E.  E.   E   
--3----------2----------|---------------------------------|
------3----------3------|---------------------7---8---10--|
----------2----------2--|--------------7---9--------------|
------------------------|--10-----------------------------|
------------------------|---------------------------------|
------------------------|---------------------------------|


   E.  E.  E  E.  E.   E      E.  E.  E  E.  E.   E   
--------------------------|--------------------------|
--------------7---8---10--|--------------7---8---10--|
-------7---9--------------|-------7---9--------------|
--10----------------------|--10----------------------|
--------------------------|--------------------------|
--------------------------|--------------------------|


   E.  E.  E  E.  E.   E     E  S S E  E  E  S S E  E   
--------------------------|----------------------------|
--------------7---8---10--|----------------------------|
-------7---9--------------|---------------2--x-2-L-----|
--10----------------------|--5--x-5-L-----0--x-0-L-----|
--------------------------|--3--x-3-L--2------------3--|
--------------------------|----------------------------|


  E  S S E  E  H           E  S S E  E  E  S S E  E     E  S S E  E  H         
------------------------|----------------------------|------------------------|
------------------------|----------------------------|------------------------|
---------------2--------|---------------2--x-2-L-----|---------------2--------|
--5--x-5-L-----0--------|--5--x-5-L-----0--x-0-L-----|--5--x-5-L-----0--------|
--3--x-3-L--2-----------|--3--x-3-L--2------------3--|--3--x-3-L--2-----------|
------------------------|----------------------------|------------------------|


  Bridge                                                        
  E      S E.  S S E  S E.  S S    S S S E.  S S S S S E.  S S  
--------------------------------|------------------------------|
--------------------------------|------------------------------|
--------------------------------|--2-2---2-------2-2---2-------|
--------------------------------|--0-0---0-------0-0---0-------|
--3--------3-------5----5-------|------3-----0-3-----3-----0-3-|
--1------1-1---1-1-3--3-3---3-3-|------------------------------|


  E  S E.  S S E  S E.  S S    W                   W                 
----------------------------|-------------------|-------------------|
----------------------------|-------------------|-------------------|
----------------------------|--2----------------|-------------------|
----------------------------|--2----------------|-------------------|
--3----3-------5----5-------|--0----------------|-------------------|
--1--1-1---1-1-3--3-3---3-3-|-------------------|-------------------|


  Repeat Intro                                                           
  S            S S E.  S S S S S E.  S S    S S S E.  S S S S S E.  S S  
-----------------------------------------|------------------------------|
-----------------------------------------|------------------------------|
--2------------2---2-------2-2---2-------|--2-2---2-------2-2---2-------|
--0------------0---0-------0-0---0-------|--0-0---0-------0-0---0-------|
-----------------3-----0-3-----3-----0-3-|------3-----0-3-----3-----0-3-|
-----------------------------------------|------------------------------|


  S S S E.  S S S S S E.  S S    S S S E.  S S S S S E.  S S  
------------------------------|------------------------------|
------------------------------|------------------------------|
--2-2---2-------2-2---2-------|--2-2---2-------2-2---2-------|
--0-0---0-------0-0---0-------|--0-0---0-------0-0---0-------|
------3-----0-3-----3-----0-3-|------3-----0-3-----3-----0-3-|
------------------------------|------------------------------|


  Verse Riff                                                           
  S          S S E.  S S S S S E.  S S    S S S E.  S S S S S E.  S S  
---------------------------------------|------------------------------|
---------------------------------------|------------------------------|
--2----------2---2-------2-2---2-------|--2-2---2-------2-2---2-------|
--0----------0---0-------0-0---0-------|--0-0---0-------0-0---0-------|
---------------3-----0-3-----3-----0-3-|------3-----0-3-----3-----0-3-|
---------------------------------------|------------------------------|


  S S S E.  S S S S S E.  S S    S S S E.  S S S S S E.  S S  
------------------------------|------------------------------|
------------------------------|------------------------------|
--2-2---2-------2-2---2-------|--2-2---2-------2-2---2-------|
--0-0---0-------0-0---0-------|--0-0---0-------0-0---0-------|
------3-----0-3-----3-----0-3-|------3-----0-3-----3-----0-3-|
------------------------------|------------------------------|


  Bridge                                                        
  E      S E.  S S E  S E.  S S    S S S E.  S S S S S E.  S S  
--------------------------------|------------------------------|
--------------------------------|------------------------------|
--------------------------------|--2-2---2-------2-2---2-------|
--------------------------------|--0-0---0-------0-0---0-------|
--3--------3-------5----5-------|------3-----0-3-----3-----0-3-|
--1------1-1---1-1-3--3-3---3-3-|------------------------------|


  E  S E.  S S E  S E.  S S    W                   W                 
----------------------------|-------------------|-------------------|
----------------------------|-------------------|-------------------|
----------------------------|--2----------------|-------------------|
----------------------------|--2----------------|-------------------|
--3----3-------5----5-------|--0----------------|-------------------|
--1--1-1---1-1-3--3-3---3-3-|-------------------|-------------------|


  Chorus                                                      
  E      S E.  S S E  S E.  S S    E  S E.  S S E  S E.  S S  
--------------------------------|----------------------------|
--------------------------------|----------------------------|
--2--------2--------------------|--2----2-------7----7-------|
--2--------2-------5----5-------|--2----2-------7----7-------|
--0------0-0---0-0-5----5-------|--0--0-0---0-0-5--5-5---5-5-|
-------------------3--3-3---3-3-|----------------------------|


  E  S E.  S S E  S E.  S S    E  S E.  S S E  S E.  S S  
----------------------------|----------------------------|
----------------------------|----------------------------|
--2----2--------------------|--2----2-------7----7-------|
--2----2-------5----5-------|--2----2-------7----7-------|
--0--0-0---0-0-5----5-------|--0--0-0---0-0-5--5-5---5-5-|
---------------3--3-3---3-3-|----------------------------|


  E.  E.  E.  E.  E  E     E.  E.  E.  E.  E  E     W                 
------------------------|------------------------|-------------------|
------------------------|------------------------|-------------------|
--9---7---9---7---9--7--|--7---5---7---5---5--4--|--2----------------|
--9---7---9---7---9--7--|--7---5---7---5---5--4--|--2----------------|
--7---5---7---5---7--5--|--5---3---5---3---3--2--|--0----------------|
------------------------|------------------------|-------------------|


   Outro                                
   S     S S  S E  E   S  S S  S E  E   
---------------------------------------|
----------------------10-10-8-10-L--8--|
--10----10-9-10-L--9-------------------|
---------------------------------------|
---------------------------------------|
---------------------------------------|


   S  S  S  S E   E   S  S  S  S E   E      S  S S  S E  E   S  S  S  S E   E   
----------------------------------------|--10-10-8-10-L--8--12-12-10-12-L--10--|
--11-11-10-11-L--10--13-13-11-13-L--11--|--------------------------------------|
----------------------------------------|--------------------------------------|
----------------------------------------|--------------------------------------|
----------------------------------------|--------------------------------------|
----------------------------------------|--------------------------------------|


   S  S  S  S E   E   S  S  S  E  E.    
--13-13-12-13-L--12--13-13-12-13------||
--------------------------------------||
--------------------------------------||
--------------------------------------||
--------------------------------------||
--------------------------------------||




Tap to rate this tab
# A B C D E F G H I J K L M N O P Q R S T U V W X Y Z