Song name
# A B C D E F G H I J K L M N O P Q R S T U V W X Y Z

Iron Maiden - That Girl tab

hi! I found this tab! I didn't make it! But enjoy the tab!

Tuning: Normal.

|-----------------------------14--------------------------------------------|
|--15--14--15-12--15--14--15------15--14--15--------------------------------|
|---------------------------------------------------------------------------|
|---------------------------------------------------------------------------|
|---------------------------------------------------------------------------|
|---------------------------------------------------------------------------|

|-------------------------|-------------------------------------------------|
|-------------------------|-------------------------------------------------|
|--14^14--11--------------|--14^--14--16--14-(12)---------------------------|
|-------------14--12------|-------------------------------------------------|
|---------------------14--|-------------------------------------------------|
|-------------------------|-------------------------------------------------|


  B5  G5  E5  F#5  |  B5
|------------------|--------------------------------------------------------|
|------------------|--------------------------------------------------------|
|-4----------------|--4-----------------------------------------------------|
|-4---5--2----4----|--4-----------------------------------------------------|
|-2---5--2----4----|--2-----------------------------------------------------|
|-----3--0----2----|--------------------------------------------------------|


           _______________________ _______________
   G5  E5  |1. A5  B5  A5  B5  A5  |2. F#5  G5
|----------|-----------------------|----------------------------------------|
|----------|-----------------------|----------------------------------------|
|----------|----2--4---2--4----2---|----------------------------------------|
|--5--2----|----2--4---2--4----2---|----4----5------------------------------|
|--5--2----|----0--2---0--2----0---|----4----5------------------------------|
|--3--0----|-----------------------|----2----3------------------------------|

  E5  F#5  G5  B5  A5  G5  E5  A5
|----------------------------------------------------------------------------|
|----------------------------------------------------------------------------|
|--------------4---2------------2--------------------------------------------|
|--2---4---5---4---2---5---2----2--------------------------------------------|
|--2---4---5---2---0---5---2----0--------------------------------------------|
|--0---2---3-----------3---0-------------------------------------------------|

    CODA:
    B5    D5
|---------------------------------------------------------------------------|
|---------3-----------------------------------------------------------------|
|---4-----2-----------------------------------------------------------------|
|---4-----0-----------------------------------------------------------------|
|---2-----------------------------------------------------------------------|
|---------------------------------------------------------------------------|
Tap to rate this tab
# A B C D E F G H I J K L M N O P Q R S T U V W X Y Z