Song name
# A B C D E F G H I J K L M N O P Q R S T U V W X Y Z

Iron Maiden - The Clansmaneasy tab

This is my first tab.....i believe its correct...anyway just try it...thanks
Tasos
Greece
----------------------------------------------------------|
----------------------------------------------------------|
----------------------------------------------------------|
----------------------------------------------------------|
--6-8-8---6-8-8---6-8-8-9-8-----6-8-8---6-8-8---6-8-8-9-8-|
-6-6-----6-6-----6-6-----------6-6-----6-6-----6-6--------|

-------------------------|
-------------------------|
-------------------------|
-------------------------|
--4-6-6---4-6-6----2-4-4-|
-4-4-----4-4------2-2----|
Tap to rate this tab
# A B C D E F G H I J K L M N O P Q R S T U V W X Y Z