Song name
# A B C D E F G H I J K L M N O P Q R S T U V W X Y Z

Iron Maiden - The Number Of The Beast tab

Solo                       
e|--10h13p10-----------------------------------------------------------------|
B|-----------11--10-----11(13)---------10h11p10--8h10p8h10p8h10  ------------|
G|---------------------------------------------------------------------------|
D|---------------------------------------------------------------------------|
A|---------------------------------------------------------------------------|
E|---------------------------------------------------------------------------|

e|-----------------------------10h12p10h12p10h12p10h12-----------------------|
B|-8--6h8p6h8p6h8p6-5--5-----------------------------------------------------|
G|---------------------------------------------------------------------------|
D|---------------------------------------------------------------------------|
A|---------------------------------------------------------------------------|
E|---------------------------------------------------------------------------|

e|-p10h13p10h13p10h13p10h13p10h13p10h12p10h12p10h12p10h12p10h12010h12p10h12p10-13-|
B|--------------------------------------------------------------------------------|
G|--------------------------------------------------------------------------------|
D|--------------------------------------------------------------------------------|
A|--------------------------------------------------------------------------------|
E|--------------------------------------------------------------------------------|
                                 
e|--(14)-------------(16)---------13(16)------------13(16)-------------------|
B|---------------------------------------------------------------------------|
G|---------------------------------------------------------------------------|
D|---------------------------------------------------------------------------|
A|---------------------------------------------------------------------------|
E|---------------------------------------------------------------------------|

e|-10h13p10----10h13p10s9h10p8h10p8h10p8-------------------------------------|
B|----------13---------------------------10----------------------------------|
G|---------------------------------------------------------------------------|
D|---------------------------------------------------------------------------|
A|---------------------------------------------------------------------------|
E|---------------------------------------------------------------------------|

e|---------------------------------------------------------------------------|
B|-11h13p11h13p11h13-10h11p10h11p10s8h10p8s6h8p6s5h6p5-----------------------|
G|---------------------------------------------------------------------------|
D|---------------------------------------------------------------------------|
A|---------------------------------------------------------------------------|
E|---------------------------------------------------------------------------|

e|---------------------------------------------------------------------------|
B|---------------------------------------------13h15p13----------------------|
G|---5---3-------------------------------------------------------------------|
D|-----------5------(7)---------(5)------------------------------------------|
A|---------------------------------------------------------------------------|
E|---------------------------------------------------------------------------|
                                                    
e|---------------------------------------------------------------------------|
B|-15------17h18p17p15 17h18p17p15---18------20--20(22)------(22)------------|
G|---------------------------------------------------------------------------|
D|---------------------------------------------------------------------------|
A|---------------------------------------------------------------------------|
E|---------------------------------------------------------------------------|
                        
e|---------------------------20(22)------(22)-----(22)-----------------------|
B|--(22)----------------18---------------------------------------------------|
G|---------------------------------------------------------------------------|
D|---------------------------------------------------------------------------|
A|---------------------------------------------------------------------------|
E|---------------------------------------------------------------------------|
Tap to rate this tab
# A B C D E F G H I J K L M N O P Q R S T U V W X Y Z