Song name
# A B C D E F G H I J K L M N O P Q R S T U V W X Y Z

Iron Maiden - The Evil That Men Do tab

-------------------------------------------------------------------------------
			     The Evil That Men Do - Iron Maiden
-------------------------------------------------------------------------------
Tabbed by:invaderzztopfan
Email:austin.brown98@yahoo.com

Tuning:Standard
guitar 1
e|---------------------------------------------------------------------------|
B|---------------------------------------------------------------------------|
G|---------------------------------------------------------------------------|
D|----5--7/9-7-5-7-7/9~------5--7/9-7-5-7-7-7/9------------------------------|
A|-5-7-7------------------5-7-7-----------------7~---------------------------|
E|---------------------------------------------------------------------------|
guitar 2
e|---------------------------------------------------------------------------|
B|----8--10/12-10-8-10-10/12~------8--10/12-10-8-10-10/12--------------------|
G|-7-9-9------------------------7-9-9---------------------9~-----------------|
D|---------------------------------------------------------------------------|
A|---------------------------------------------------------------------------|
E|---------------------------------------------------------------------------|
guitar 1
e|---------------------------------------------------------------------------|
B|---------------------------------------------------------------------------|
G|---------------------------------------------------------------------------|
D|----5--7/9-7-5-7-7/9\7~----------------------------------------------------|
A|-5-7-7---------------------------------------------------------------------|
E|---------------------------------------------------------------------------|
guitar 2
e|---------------------------------------------------------------------------|
B|----8--10/12-10-8-10-10/12\10~---------------------------------------------|
G|-7-9-9---------------------------------------------------------------------|
D|---------------------------------------------------------------------------|
A|---------------------------------------------------------------------------|
E|---------------------------------------------------------------------------|
(doesn't matter which guitar does this part)
e|---------------------------------------------------------------------------|
B|---------------------------------------------------------------------------|
G|-7h9p7-11^---r11~----------------------------------------------------------|
D|---------------------------------------------------------------------------|
A|---------------------------------------------------------------------------|
E|---------------------------------------------------------------------------|

e|---------------------------------------------------------------------------|
B|---------------------------------------------------------------------------|
G|---------------------------------------------------------------------------|
D|----5--7/9-7-5-7-7/9\7~-----5---7/9-7-5-7-7/9-9~---------------------------|
A|-5-7-7-------------------5-7-7---------------------------------------------|
E|---------------------------------------------------------------------------|

e|---------------------------------------------------------------------------|
B|----8--10/12-10-8-10-10/12\10~-----8--10/12--10-8-10-10/12-12~-------------|
G|-7-9-9--------------------------7-9-9--------------------------------------|
D|---------------------------------------------------------------------------|
A|---------------------------------------------------------------------------|
E|---------------------------------------------------------------------------|

e|---------------------------------------------------------------------------|
B|---------------------------------------------------------------------------|
G|---------------------------------------------------------------------------|
D|----8--7/9-7-9-7-7/9-------------------------------------------------------|
A|-5-7-7---------------7~----------------------------------------------------|
E|---------------------------------------------------------------------------|


e|---------------------------------------------------------------------------|
B|----8--10/12-10-8-10-10/12-------------------------------------------------|
G|-7-9-9---------------------9~----------------------------------------------|
D|---------------------------------------------------------------------------|
A|---------------------------------------------------------------------------|
E|---------------------------------------------------------------------------|

| r  Release bend
| ^  bend up
| /  slide up
| \  slide down
| h  hammer-on
| p  pull-off
| ~  vibrato
| +  harmonic
| x  Mute note
==============================================================================
Tap to rate this tab
# A B C D E F G H I J K L M N O P Q R S T U V W X Y Z