Song name
# A B C D E F G H I J K L M N O P Q R S T U V W X Y Z

Iron Maiden - Fear Of The Dark tab

Guitar 1:

e|----------------------------------------------|
B|-----14---------------------------------------|
G|--12-13----12-14-12^10------10---10^0---------|
D|------------------------12--------------------|
A|---------------------------------------10^12--|
E|----------------------------------------------|


e|--------------------10-10-10------13--15------|
B|--------------------10-10-10------------------|
G|---10-----12-14-------------------------------|
D|---10-----------------------------------------|
A|----------------------------------------------|
A|----------------------------------------------|


e|-15---13^12-10----10--------------------------|
B|---------------10----13-11^10-----10----------|
G|-------------------------------12----12^10----|
D|-------------------------------------------12-|
A|----------------------------------------------|
E|----------------------------------------------|


e|----------------------------------------------|
B|----------------------------------------------|
G|--10----12-----10----10----10^2-\-------------|
D|----------------------------------------------|
A|----------------------------------------------|
E|----------------------------------------------|


e|-15-17----15-13^12-13-------------------------|
B|----------------------13-----------13---------|
G|--------------------------------12------12^10-|
D|-----------------------------14---------------|
A|--------------------------15------------------|
E|----------------------------------------------|


e|----------------------------------------------|
B|----10----------------------------------------|
G|-12-14---12-14--12^10-------10----------------|
D|------------------------12--------------------|
A|----------------------------------------------|
E|----------------------------------------------|


e|------13----------------------------------------------|
B|------13----------------------------------------------|
G|-(12)-14-(12)-14-12^10----10--------------------------|
D|-----------------------12----12^10----10--------------|
A|-----------------------------------12----12--11^10^8--|
E|------------------------------------------------------|


e|-----------------------------------------------------||
B|-----------------------------------------------------||
G|-----------------------------------------------------||
D|-----------------------------------------------------||
A|--10^8-----------------------------------------------||
E|---------10----10-----10-----------------------0-----||


Guitar 2:

e|------\19----17----16--17--16^14^16^14------15^14-------------------------|
B|----------------------------------------17---------17^14^12----14^--------|
G|------------------------------------------------------------16------------|
D|--------------------------------------------------------------------------|
A|--------------------------------------------------------------------------|
E|--------------------------------------------------------------------------|


e|--------------------------------------------------------------------------|
B|-^17^14----14^17^14----14-15^14----14-15^14----------------14^15-14-17-19-|
G|--------16----------16----------16----------16^14^13-14^16----------------|
D|--------------------------------------------------------------------------|
A|--------------------------------------------------------------------------|
E|--------------------------------------------------------------------------|


e|---------------(17)-15-17^14----------------------------------------------|
B|-(17)-15-17^14---------------17^14---15^14----14^17^14---14---------------|
G|-----------------------------------0-------16----------16---16^14^16^14---|
D|------------------------------------------------------------------------16|
A|--------------------------------------------------------------------------|
E|--------------------------------------------------------------------------|


e|------------------------------------------------------19-19-21------------|
B|--------------------------------------------------------------------------|
G|--14-----------------------------14-16-18-16-14-14^6----------------------|
D|------16^14-16^14-----------14^16-----------------------------------------|
A|------------------16^16-16------------------------------------------------|
E|--------------------------------------------------------------------------|


e|----21----21----20----17^16-----------------------------------------------|
B|-----------------------------17------------14^15^16-----------------------|
G|---------------------------------16^14^16---------------------------------|
D|--------------------------------------------------------------------------|
A|--------------------------------------------------------------------------|
E|--------------------------------------------------------------------------|


e|-14^17^16^14----14^16^14--------------------------------------------------|
B|-------------17----------17^15^14--14^15^14--14^15^14---------------------|
G|-----------------------------------------------------16^18--18^19^18^19^18|
D|--------------------------------------------------------------------------|
A|--------------------------------------------------------------------------|
E|--------------------------------------------------------------------------|


e|--------------------------------------------------------------------------|
B|--------------------------------------------------------------14--19------|
G|-19---18^19^18^16-18---16^18^16^14-16---14^16^14^13-14-----14-------------|
D|--------------------------------------------------------16----------------|
A|--------------------------------------------------------------------------|
E|--------------------------------------------------------------------------|


e|-------------------------------------------------------------------------||
B|---19---14^19^14-------------14-19-19------------------------------------||
G|------------------14------14---------------------------------------------||
D|----------------------14-------------------------------------------------||
A|-------------------------------------------------------------------------||
E|-------------------------------------------------------------------------||

Tabbed by Daniele96 
Tap to rate this tab
# A B C D E F G H I J K L M N O P Q R S T U V W X Y Z