Song name
# A B C D E F G H I J K L M N O P Q R S T U V W X Y Z

Iron Maiden - Wasted Years tab

#----------------------------------PLEASE NOTE---------------------------------#
#This file is the author's own work and represents their interpretation of the #
#song. You may use this file only for private study, scholarship, or research. #
#------------------------------------------------------------------------------#

iron maiden - wasted years
SOLO tabbed by Sindre Froyniboy
+++++++++++++++++++++++++++++++
  3:13            3:16
e|-0-2-3-5-7-------------------------------------------------------------------------------|
h|-0-0-----------0-0-10-0-8-0-8-0-10-0-8-0-8-0-10-0-8-0-10-0-8-0-8-0-10-0-8-0-8-0-10-0-8-0-|
g|-----------------------------------------------------------------------------------------|
D|-----------------------------------------------------------------------------------------|
A|-----------------------------------------------------------------------------------------|
E|-----------------------------------------------------------------------------------------|

   3:19             3:22                                  3:24
e|--------------------12-10-------10h12r10---12-10--------15-15-15-15-14-12----------------|
h|-8-7-------7--------------12-10----------12------12-10--------------------13-------------|
g|-----9-7-9---9---------------------------------------------------------------------------|
D|-----------------------------------------------------------------------------------------|
A|-----------------------------------------------------------------------------------------|
E|-----------------------------------------------------------------------------------------|

  3:28                         3:34                                         
e|------------------------------12-15-12---------------------------------------------------|
h|--(0-20-0-19-0-20-0-17)-x8-------------15-12-15-12---------------------------------------|
g|---------------------------------------------------12-14-12------------------------------|
D|------------------------------------------------------------14-12-14-12------------------|
A|------------------------------------------------------------------------14---------------|
E|-----------------------------------------------------------------------------------------|

                                                                                     
e|-------------------------17-19-21-22b(24)---22-20-19-20-22-20-19-------------------------|
h|-17-19-20-19----17-19-20----------------------------------------20-----------------------|
g|-------------19---------------------------------------------------19---------------------|
D|-----------------------------------------------------------------------------------------|
A|-----------------------------------------------------------------------------------------|
E|-----------------------------------------------------------------------------------------|

Notation Legend:
h=hammer
r=release (pull off)
s=slide
b=bend
bs=bend and slide (duh!)
3:29= 3 minutes and 29 seconds into song (duh!)
Tap to rate this tab
# A B C D E F G H I J K L M N O P Q R S T U V W X Y Z