Song name
# A B C D E F G H I J K L M N O P Q R S T U V W X Y Z

Iron Maiden - The Evil That Men Do tab

#----------------------------------PLEASE NOTE---------------------------------#
#This file is the author's own work and represents their interpretation of the #
#song. You may use this file only for private study, scholarship, or research. #
#------------------------------------------------------------------------------#

the evil that men do by iron maiden
SOLO tabbed by Sindre Froyniboy
+++++++++++++++++++++++++++++++
***Pre-Solo
  2:59             3:05        
e|-----------------------------------------------------------------------------------------|
h|-----------------------------------------------------------------------------------------|
g|-----------------------------------------------------------------------------------------|
D|--4h5r4-----------7h9r7h9----------------------------------------------------------------|
A|--------5-7---------------9-10-----------------------------------------------------------|
E|-----------------------------------------------------------------------------------------|

***Solo                                                                         
   3:16                                3:22                                                
e|---16h17r16-------16---------------------------------------------------------------------|
h|-19--------19-17----17---17--------------------------------------------------------------|
g|----------------------16---16---------------------------------------------------11-------|
D|-----------------------------16---------------------------14-12-11-----14-12-11----------|
A|--------------------------------14---12-11--------14-12-11--------14-12------------------|
E|------------------------------------------14-12-11---------------------------------------|
                                                                         
  3:25                                                           3:34    
e|----------12-------------------12---------12---------12-12-----16------------------------|
h|---10---10---12--10--------10----12---10----12---10--------------17--17-16---------------|
g|-11---11-------11---9----11--11-----11--11-----11--11------11------16------16----14------|
D|------------------------------------------------------------------------------16----14---|
A|---------------------------------------------------------------------------------------16|
E|-----------------------------------------------------------------------------------------|
                                                                                     
   3:37                                            3:40                                  
e|-21-19-17-16-17-16h17r16-----------------------------------------------------------------|
h|-------------------------19-21-19h21r19-17-----------------------------------------------|
g|-------------------------------------------18-16-----------------------------------------|
D|-------------------------------------------------19-17-----------------------------------|
A|-----------------------------------------------------------------------------------------|
E|-----------------------------------------------------------------------------------------|

***Outro
   4:16                     4:20                                       
e|-----------------15-12--------------------12---------------------------------------------|
h|-----------12-15-----------15-13-12------------------------------------------------------|
g|-----12-14--------------------------14-12---------12--12---------------------------------|
D|-s14------------------------------------------------14--14--12---------------------------|
A|---------------------------------------------------------------14s-----------------------|
E|-----------------------------------------------------------------------------------------|

                                                                                       
Notation Legend:
h=hammer
r=release (pull off)
s=slide
b=bend
bs=bend and slide (duh!)
3:29= 3 minutes and 29 seconds into song (duh!)

Oslo, 24th september 2002
Tap to rate this tab
# A B C D E F G H I J K L M N O P Q R S T U V W X Y Z