Guitaretab - guitar tabs
Song name
# A B C D E F G H I J K L M N O P Q R S T U V W X Y Z

Iron Maiden - Iron Maiden tab

Band- Iron Maiden
Song- Iron Maiden

C5
x 3 5 5 x x
G5
3 5 5 x x x
D5
x 5 7 7 x x
A5
5 7 7 x x x

Gtr I (E A D G B E) - 'Dave Murray dist electric'
Gtr II (E A D G B E) - 'Dennis Stratton - dist electric'
Gtr III (E A D G B E) - 'Overdub  - dist electric'
Gtr IV (E A D G B E) - 'Overdub  - dist electric'

Intro
  Q=222
 4/4
  Gtr I
         |-3-|                               |-3-|
  Q.   E E E E E E   +Q   Q  E E Q    Q.   E E E E E E   +Q   Q  E E Q
|------------------|----------------|------------------|-----------------|
|----------------5-|-(5)--1---------|----------------5-|-(5)--1----------|
|-2----2-0h2p0-----|---------2-4-0--|-2----2-0h2p0-----|---------2-4-0---|
|--------------2---|----------------|--------------2---|-----------------|
|------------------|----------------|------------------|-----------------|
|------------------|----------------|------------------|-----------------|
|-Riff 1                                                      end Riff 1-|

           |-3-|                               |-3-|
    Q.   E E E E E E   +Q   Q  E E Q    Q.   E E E E E E   +Q   Q  E E Q    3x
||-------------------|----------------|------------------|------------------||
||o----------------5-|-(5)--1---------|----------------5-|-(5)--1----------o||
||--2----2-0h2p0-----|---------2-4-0--|-2----2-0h2p0-----|---------2-4-0----||
||---------------2---|----------------|--------------2---|------------------||
||o------------------|----------------|------------------|-----------------o||
||-------------------|----------------|------------------|------------------||
|
|   Gtr II
|          |-3-|                               |-3-|
|   Q.   E E E E E E   +Q   Q  Q   Q    Q.   E E E E E E   +Q   Q  Q   Q    3x
||-------------------|----------------|------------------|------------------||
||o-1----1-0h1p0-----|----------------|-1----1-0h1p0-----|-----------------o||
||---------------2-0-|-(0)------------|--------------2-0-|-(0)--------------||
||-------------------|------4--2---0--|------------------|------4--2---0----||
||o------------------|----------------|------------------|-----------------o||
||-------------------|----------------|------------------|------------------||
|-Riff 2 (both Gtrs)                                             end Riff 2-|

   Verse
    Gtrs I, II
      PM----------------------------|     PM----------|
    E E E E E E E E   E E E E E E E E   E E E E E E E E   Q.   Q.   Q    4x
||------------------|-----------------|-----------------|----------------||
||o-----------------|-----------------|-----------------|---------------o||
||--2---------------|-----------------|-----------------|-5----4---------||
||--2-2-2-2-2-2-2-2-|-2-2-2-2-2-2-2-2-|-5---------------|-5----5----5----||
||o-0-0-0-0-0-0-0-0-|-0-0-0-0-0-0-0-0-|-5-5-5-5-5-5-5-5-|-5----5----5---o||
||------------------|-----------------|-3-3-3-3-3-3-3-3-|-3----3----3----||
|-Rhy Fig 1                                                end Rhy Fig 1-|

   Pre-Chorus
   Riff 2 x2

   Chorus
    C5              G5
    Gtr I
    Q.   Q.    Q    Q.   Q.    Q
    |    |     |    |    |     |
    /    /     /    /    /     /

    Gtr II
    Q.   Q   E Q    Q.   Q   E Q
||----------------|---------------|
||o---------------|---------------|
||--5----5-----7--|---------------|
||--5----5-----7--|-5----5-----5--|
||o---------------|-5----5-----5--|
||----------------|---------------|
|
|   Gtrs III, IV
|   W               W
||----------------|---------------|
||o---------------|---------------|
||----------------|---------------|
||----------------|---------------|
||o---------------|---------------|
||----------------|---------------|
|-Rhy Fig 2 (both Gtrs)

  D5                  A5
  Q.   Q.    Q         Q.   Q.             Q
  |    |     |         |    |              |
  /    /     /         /    /              /

  Q.   Q   E Q         W                        4x
|-2----2-----2--|-------------------------------||
|-3----3-----3--|------1-----------------------o||
|-2----2-----2--|------2------------------------||
|-0----0-----0--|------2------------------------||
|---------------|------0-----------------------o||
|---------------|-------------------------------||
|
| W               a    H        a      H        4x
|---------------|-------------------------------||
|---------------|------5---------------8-------o||
|---------------|-7b9-(7)------10b12-(10)-------||
|---------------|-------------------------------||
|---------------|------------------------------o||
|---------------|-------------------------------||
                                  end Rhy Fig 2-|

   Pre-Verse
   Riff 2 x2


   Verse 2
   Rhy Fig 1 x4


   Chorus
   Rhy Fig 2 x3


  Gtrs I, II
  Q.   Q.   Q    Q.   Q.   Q    W
|--------------|--------------|------||
|--------------|--------------|------||
|-5----5----5--|--------------|-7----||
|-5----5----5--|-5----5----5--|-7----||
|-3----3----3--|-5----5----5--|-5----||
|--------------|-3----3----3--|------||


 Interlude
  Gtr I
   Q.    Q.    Q    +E  E +Q   Q  Q    Q.   Q.   Q    +E  E +Q   Q  Q
|-----------------|------------------|--------------|------------------|
|-----------------|------------------|--------------|------------------|
|-----------------|------------------|--------------|-----0-(0)--2--4--|
|-----------------|-----0-(0)--2--3--|-0----2----3--|-(3)--------------|
|--0-----2-----3--|-(3)--------------|--------------|------------------|
|-----------------|------------------|--------------|------------------|
|
| Gtr II
| +Q   Q    H        W                 W               W
|-----------------|------------------|--------------|------------------|
|-----------------|------------------|--------------|------------------|
|-(7)-------------|------------------|--------------|------------------|
|-(7)-------------|------------------|--------------|------------------|
|-(5)-------------|------------------|--------------|------------------|
|-----------------|------------------|--------------|------------------|

[ Tab from: http://www.guitaretab.com/i/iron-maiden/24527.html ]
          Gtrs I, II
            Q.    Q.    Q     +E   E  +Q    Q   Q
||-------------------------|-----------------------|
||o------------------------|-----------------------|
||----------9-----7-----5--|--(5)--4--(4)---5---2--|
||-------------------------|-----------------------|
||o------------------------|-------5--(5)---7---8--|
||----------5-----7-----8--|--(8)------------------|
|           Q.    Q.    Q     +E   E  +Q    Q   Q
|
|   Gtrs III, IV
|    a     +Q.    Q.    Q     +E   E  +Q    Q   Q
||--10b12-(10)---10-----8--|--(8)--7--(7)---8---5--|
||o-18b20-(18)---18----17--|-(17)-15-(15)--17--13--|
||-------------------------|-----------------------|
||-------------------------|-----------------------|
||o------------------------|-----------------------|
||-------------------------|-----------------------|


   Q.    Q.    Q     +E   E  +Q    Q   Q   3x
|-----------------|------------------------||
|-----------------|-----------------------o||
|--------------2--|--(2)--4--(4)---5---7---||
|--3-----5--------|-------5--(5)---7---9---||
|--5-----7-----8--|--(8)------------------o||
|-----------------|------------------------||
|  Q.    Q.    Q     +E   E  +Q    Q   Q
|
|  Q.    Q.    Q     +E   E  +Q    Q   Q   3x
|--------3-----5--|--(5)--7--(7)---8--10---||
|--6----12----13--|-(13)-15-(15)--17--18--o||
|-14--------------|------------------------||
|-----------------|------------------------||
|-----------------|-----------------------o||
|-----------------|------------------------||


  Gtrs I, II
  ~
  W          W            W
|----------|----------||-------|
|----------|----------||o------|
|-9--------|----------||-------|
|-7--------|----------||-------|
|----------|----------||o------|
|----------|----------||-------|


  W         3x S S S S E E E E Q    +W
|-----------||--------------------|--------||
|----------o||--------------------|--------||
|-----------||--------------------|--------||
|-----------||-------------7---5--|-(5)----||
|----------o||-7-7-7-7-7-7-5---3--|-(3)----||
|-----------||--------------------|--------||


   Pre-Verse
   Riff 1

   Riff 2 x3


   Verse 3
   Rhy Fig 1 x4


   Chorus
   Rhy Fig 2 x3


 Outro
  Gtrs I, II
  Q.   Q.   Q    Q.   Q.   Q    W          +W
|--------------|--------------|----------|------------|
|--------------|--------------|----------|------------|
|-5----5----5--|--------------|-7--------|-(7)--------|
|-5----5----5--|-5----5----5--|-7--------|-(7)--------|
|-3----3----3--|-5----5----5--|-5--------|-(5)--------|
|--------------|-3----3----3--|----------|------------|


  +W           Q  Q  Q  Q    Q  Q  Q  Q
|------------|-------------|---------------|
|------------|-------------|---------------|
|-(7)--------|-------------|---------------|
|-(7)--------|-7-----7-----|-7-----7-------|
|-(5)--------|-7-----7-----|-7-----7-------|
|------------|-5-----5-----|-5-----5-------|


          Q    Q           Q           Q
|----------------------------------------------------|
|----------------------------------------------------|
|----------------------------------------------------|
|---------7----7-----------7-----------7-------------|
|---------7----7-----------7-----------7-------------|
|---------5----5-----------5-----------5-------------|
|
| Gtr III
|  a      Q    S  S  S  S  S  S  S  S  S  S  S  S
|--------17---17-19-20-19-17-20-17----------17-------|
|-20b22-(20)-----------------------20-17-20----20b22-|
|----------------------------------------------------|
|----------------------------------------------------|
|----------------------------------------------------|
|----------------------------------------------------|
|
| Gtr IV
|         W
|----------------------------------------------------|
|----------------------------------------------------|
|----------------------------------------------------|
|----------------------------------------------------|
|----------------------------------------------------|
|----------------------------------------------------|


    E      E      E     E      E      E      E  E
|-------------------------------------------------|
|-------------------------------------------------|
|-------------------------------------------------|
|---7------7------7-----7------7------7------7--7-|
|---7------7------7-----7------7------7------7--7-|
|---5------5------5-----5------5------5------5--5-|
|
|  +E      Q.                 +H
|---------17-----------------(17)-----------------|
|-(20)--------------------------------------------|
|-------------------------------------------------|
|-------------------------------------------------|
|-------------------------------------------------|
|-------------------------------------------------|
|
|   S   S  S   S  S  S  S  S   S   S  S  S  +Q
|-------------------------------------------------|
|---------------------------------------17-(17)---|
|-----------------------------16--17-19-----------|
|----------------14-15-17-19----------------------|
|------14-15--17----------------------------------|
|--17---------------------------------------------|


    S  S S S S S S S S S S S S S S S    +W            Q   Q  H
|------------------------------------|-------------|--------------*|
|------------------------------------|-------------|--------------*|
|------------------------------------|-------------|--------------*|
|---7--7-7-7-7-7-7-7-7-7-7-7-7-7-7-7-|--(7)--------|--7\----------*|
|---7--7-7-7-7-7-7-7-7-7-7-7-7-7-7-7-|--(7)--------|--7\----------*|
|---5--5-5-5-5-5-5-5-5-5-5-5-5-5-5-5-|--(5)--------|--5\----------*|
|
|   W                                    W            Q   Q  H
|------------------------------------|-------------|-17\----------*|
|------------------------------------|-------------|--------------*|
|------------------------------------|-------------|--------------*|
|------------------------------------|-------------|--------------*|
|------------------------------------|-------------|--------------*|
|------------------------------------|-------------|--------------*|
|
|  +W                                   +W            Q   Q  H
|------------------------------------|-------------|-17\----------*|
|-(17)-------------------------------|-(17)--------|--------------*|
|------------------------------------|-------------|--------------*|
|------------------------------------|-------------|--------------*|
|------------------------------------|-------------|--------------*|
|------------------------------------|-------------|--------------*|
Related for Iron Maiden tab
Iron Maiden chords by Iron Maiden