Song name
# A B C D E F G H I J K L M N O P Q R S T U V W X Y Z

Iron Maiden - Remember Tomorrow tab

IRON MAIDEN
"Remember Tomorrow"
IRON MAIDEN

Intro:
  Mi5
e--------------------------------I-----------------I----------------I
b--------------------------------I-----------------I----------------I
g--------------------------------I-----------------I----------------I Guitar1=(G1)
d-----2---2----------2----2------I-----3-----3-----I-----2---2------I
a---2----2---------2----2---2----I---3-----3---3---I---2----2-------I
E-0-----0----0-0-0-------------3-I-1-------------3-I-0-----0----0-0-I

On the G1 play this riffs.The ^().. significant bend the string before of play and then down it

e-^(12)11-I----12-----I-^(12)11^11(12)-I--------10-I-^(12)11-I-15--10-I-^(12)11^11(12)-I----------I-------I
b---------I---------8-I----------------I---10---12-I---------I-15--10-I----------------I-11--*-11-I-----8-I
g---------I-12------9-I----------------I-9------11-I---------I-15-----I----------------I-10-------I---7---I
d---------I--------10-I----------------I-----------I---------I--------I----------------I----------I-7-----I
a---------I-----------I----------------I-----------I---------I--------I----------------I----------I-------I
E---------I-----------I----------------I-----------I---------I--------I----------------I----------I-------I

Vers + riffs:Here are three guitars.The tabs are base because is very complicated to catch it(look G3)

guitar 1              guitar 2            guitar 3 
e-7-----I-8-------I   -------I--------I   -1-I-7-I---I-1-----I-------3-----I (Guitars that go with at the verses) 
b---8---I---10----I   -8-----I-10-----I   -1-I-8-I-8-I---0---I-1-------1---I
g-----9-I------10-I   ---9---I---10---I   -2-I-9-I-8-I-----0-I---2-------2-I
d-------I---------I   -----9-I-----10-I   -3-I---I-8-I-------I-----3-------I
a-------I---------I   -------I--------I   -3-I---I---I-------I-------------I
E-------I---------I   -------I--------I   -1-I---I---I-------I-------------I

Unchain the colours before my eyes 
Yesterday's sorrows, tomorrow's white lies 
Scan the horizon, the clouds take me higher 
I shall return from out of fire 

Riff of interlude:(RIFF A)X4

e---------------------------------------------------I
b---------------------------------------------------I
g---------------------------------------------------I
d---------------------------------------------------I
a------------2--2-2--------------3--3-3-3-3-2-0-----I
E-7/-0-0-0-0--------3-2-3--3-3-3----------------3-0-I

Repeat intro in Mi5 and riff of the verses 

Tears for rememberance, and tears for joy 
Tears for somebody and this lonely boy 
Out in the madness, the all seeing eye 
Flickers above us, to light up the sky 

(RIFF A)X4

e--------------------------------------------------I
b--------------------------------------------------I
g--------------------------------------------------I x4  (RIFF B)
d-7-*-*-7-*-*-7-7--5-5--7-*-*-7-*-*-7--5-5--5--5-5-I
a-5-*-*-5-*-*-5-5--3-3--5-*-*-5-*-*-5--3-3--3--3-3-I
E--------------------------------------------------I

e----------------------------------------------------I
b----------------------------------------------------I
g----------------------------------------9-9--9--9-9-I x4   (RIFF C)
d-9-*-*-9-*-*-9-9--12-12--9-*-*-9-*-*-9--7-7--7--7-7-I
a-7-*-*-7-*-*-7-7--10-10--7-*-*-7-*-*-7--------------I
E----------------------------------------------------I

e------------------------------------------------------------------------------------------------------------I
b------------------------------------------------------------------------------------------------------------I
g----------5--5-5-5-5-3---------------7--7-7-7-7-5---------------4--4-4-4-4-2---------------5--5-5-5-5-3-----I (RUFF D) 
d-----------------------5-3------------------------7-5------------------------4-2------------------------5-3-I
a-3--3-3-3-------------------5--5-5-5-------------------2--2-2-2-------------------3--3-3-3------------------I
E------------------------------------------------------------------------------------------------------------I

e-------------------------------------------------------------------------------------------------------------
b-------------------------------------------------------------------------------------------------------------
g----------5--5-5-5-5-3---------------7--7-7-7-7-5---------------4--4-4-4-4-2---------------5--5-5-5-5-3------
d-----------------------5-3------------------------7-5------------------------4-2------------------------5-3--
a-3--3-3-3-------------------5--5-5-5-------------------2--2-2-2-------------------3--3-3-3-------------------
E-------------------------------------------------------------------------------------------------------------

 --------------------------I
 --------------------------I
 --------------------------I  (RIFF E)
 -5-5--5--5-5---7-7--7--7--I
 -3-3--3--3-3---5-5--5--5--I
 --------------------------I

(RIFF C)

(RIFF D)

(RIFF E)

Intro + riffs of the verses

Unchain the colours before my eyes 
Yesterday's sorrows, tomorrow's white lies 
Scan the horizon, the clouds take me higher 
I shall return from out of fire

(RIFF A)X8


finihs:
      e-------------------I
      b-------------------I
      g-------------------I
      d-5...-----2...-----I
      a-3...-----2...-----I
      E----------0...-----I

*For consults and orders: maidenhell6@hotmail.com
Tap to rate this tab
# A B C D E F G H I J K L M N O P Q R S T U V W X Y Z