Song name
# A B C D E F G H I J K L M N O P Q R S T U V W X Y Z

Iron Maiden - Can I Play With Madness tab

********************************
* Iron Maiden                  *
* Can I Play With Madness      *
* Seventh Son of a Seventh Son *
* Tabbed by Slapstik           *
********************************

Tuning - Standard


Intro:
|---2----------------------------|----------3-3-3------------3-3--|
|---3----------------------------|--3-------3-3-3------------3-3--|
|---2----------------------------|--2-------0-0-0------------0-0--|
|---0---0-0-0-0-0-0-0-0-0-0-0-0--|---------------------------0-0--|
|--------------------------------|--3-------3-3-3------------2-2--|
|--------------------------------|---------------------------3-3--|

                           ending
|--3-----------|-----3--2-2---3--2-2----3---|
|--3-----------|-----3--3-3---3--3-3----3---|
|--0-----------|--0--2--2-2---2--2-2----0---|
|--0-----------|--0--0--0-0---0--0-0----0---|
|--2-----------|----------------------------|
|--3-----------|----------------------------|



Verse:
|---2----------------------------|---------------------------3-3--|
|---3----------------------------|--3------------------------3-3--|
|---2----------------------------|--2------------------------0-0--|
|---0---0-0-0-0-0-0-0-0-0-0-0-0--|-----0-0-0-0-0-0-0-0-0-0---0-0--|
|--------------------------------|--3------------------------2-2--|
|--------------------------------|--------------------------------|


|--3----------------------------|-----3--2-2---3--2-2----3---|
|--3----------------------------|-----3--3-3---3--3-3----3---|
|--0----------------------------|--0--2--2-2---2--2-2----0---|
|--0---0-0-0-0-0-0-0-0-0-0-0-0--|--0--0--0-0---0--0-0----0---| 
|--2----------------------------|----------------------------|
|-------------------------------|----------------------------|

                               ending
|--------------------------------|-------------------------------|
|--3---3---3--------------3---3--|--3-----------------3----------|
|--2---2---2---2------2---2---2--|--2---2---------2---2------2---|
|--0---0---0---2------2---0---0--|--0---2---------2---0------2---|  
|--------------0------0----------|------0---------0----------0---|
|--------------------------------|-------------------------------|



Chorus:
|-------------------------------|-------------------------------|
|-------------------------------|----------------------------3--|
|--[4]-------4------4--4--------|----------------------------2--|
|--[4]-------4------4--4-----5--|----5---5---5---5-----------0--|
|--[2]--2-2-2---2-2-2--2--0--5--|----5---5---5---5---5---0---0--|
|----------------------------3--|----3---3---3---3--------------|


|-------------------------------|-------------------------------|
|---3---3-----------3-----------|-------3---2-------------------|
|---2---2-----------2-------2---|---2-----------4---2-------4---|
|---0---0---0---0---0---0---2---|---2-------------------4---4---|
|---0---0---0---0-------0---0---|---0-----------------------2---|
|-------------------------------|-------------------------------|

|-------------------------------|-------------------------------|
|-------------------------------|-------------------------------|
|-------4-----------4-----------|---------------------------2---|
|-------4-----------4-------5---|---5---5---5---5-----------2---|
|---2---2---2---2---2---0---5---|---5---5---5---5---5---0---2---|
|---------------------------3---|---3---3---3---3-----------0---|

|----------------------------|--------------------------|
|----------------------------|--------------------------|
|------2--2-----2--2-----0---|-----------------------4--|
|------2--2-----2--2-----2---|-----------------------4--|
|------2--2--2--2--2--2--2---|--------------0--2--0--2--|
|------0--0--0--0--0--0--0---|-----0--2--3--------------|

      ending of chorus (miss out last bar in chorus)
|-----------------------------|------------------------|
|--3-------------------3------|-------------3----------|
|--2--------2----------2------|------2------2-----2----|
|--0--------2----------0------|------2------0-----2----| 
|-----------0-----------------|------0------------0----|
|-----------------------------|------------------------|



Interlude:
|-------------------------------|------------------------------------|
|-------------------------------|------------------------------------|
|-------------------------------|------------------------------------|
|------------------5------------|------------------5--------7--------|
|--/7--7-7-7-5-----5----5-5-7-5-|--/7--7-7-7-5-----5--------7--------|
|----------------7--------------|----------------7-------------0--0--|


|-------------------------------|------------------------------------|
|-------------------------------|------------------------------------|
|--/9---9-9-9-7-----------------|--/9---9-9-9-7----------------------|
|------------------9-5----------|------------------9--5-----7--------|
|-------------------------------|------------------------------------|
|-------------------------------|------------------------------------|


|-------------------------------|------------------------------------|
|-------------------------------|------------------------------------|
|-------------------------------|------------------------------------|
|------------------------8------|----------------------8---10-10-----|
|--10---10-10-10-9---8----------|--10---10-10-10-9-----8---10-10-----|
|-------------------------------|------------------10------------x-x-|


|-------------------------------|------------------------------------|
|-------------------------------|------------------------------------|
|--/12---12-12-12-11---10-------|--/12---12-12-12-11----10------12---|
|-------------------------------|--------------------12--------------|
|-------------------------------|------------------------------------|
|-------------------------------|------------------------------------|





Solo:
|----------15-------------------|--------------------------15b(17)---|
|--15b(17)----15b(17)---15b(17)-|--------15-b(17)bd(15)--12----------|
|-------------------------------|------------------------------------|
|-------------------------------|------------------------------------|
|-------------------------------|------------------------------------|
|-------------------------------|------------------------------------|


|-[17]\-------------------------|------------------------------------|
|-------------------------------|------------------------------------|
|-------------------------------|------------------------------------|
|-------7b(9)--7b(9)bd(7)\5-7-7-|--7b(9)bd(7)\5--7--7b(9)bd(7)-------|
|-------------------------------|------------------------------------|
|-------------------------------|------------------------------------|


|----------------------------------------22-22b(24)--|-[24]\---------|
|-------20--22-22b(24)bd(22)\20-22--20---------------|---------------|
|--/21-----------------------------------------------|---------------|
|----------------------------------------------------|---------------|
|----------------------------------------------------|---------------|
|----------------------------------------------------|---------------|

                                                              w/bar
|---------------|-----------------------------|------------|---------|
|-------11--13--|--13b(15)--13\11-13--13--11--|------------|---------|
|--12-----------|-----------------------------|----3-------|-[3]\----|
|---------------|-----------------------------|----3-------|-[3] \---|
|---------------|-----------------------------|------------|---------|
|---------------|-----------------------------|------------|---------|

     pick scrapes
|---------------|-----------------------------|----------------------|
|----///--\\\---|-3---3---3------------3---3--|--3------------3------|
|--x///----\\\--|-2---2---2---2----2---2---2--|--2---2----2---2----2-|
|--x//------\\--|-0---0---0---2----2---0---0--|--0---2----2---0----2-|
|--x/--------\--|-------------0----0----------|------0----0--------0-|
|---------------|-----------------------------|----------------------|






Tap to rate this tab
# A B C D E F G H I J K L M N O P Q R S T U V W X Y Z