Guitaretab - guitar tabs
Song name
# A B C D E F G H I J K L M N O P Q R S T U V W X Y Z

Iron Maiden - Dance Of Death tab

Heres a Tab for Dance Of Death by Iron Maiden of the album 'Dance of Death'.
Its a killer album, and this is a killer song, so enjoy playing it and please rate!

Band: Iron Maiden
Song: Dance of Death
Album: Dance of Death
Tabbed by: Ya ol' mate Robbo



Key
---
h = hammer-on
p = pull-off
qb = quarter bend
hb = half bend
b = full bend
r = release bend
t = tap
PM = palm mute
trip = triplet
[7] = natural harmonic
<7> = artificial harmonic
~ = Let Ring

e|-------------------------------------|
B|-------------------------------------|
G|-------------------------------------|
D|----9---9------12--12-------7---7----|
A|--7---7---7---9---9---9---5---5---5--|
E|-------------------------------------|

e|-------------------------------------|
B|-------------------------------------|
G|-------------------------------------|
D|----5---5-------5---5-------7---7----|
A|--3---3---3---3---3---3---5---5---5--|
E|-------------------------------------|

e|-------------------------|
B|-------------------------|
G|-------------------------|
D|----9---9-------9---9----|
A|--7---7---7---7---7---7--|
E|-------------------------|

e|--------------------------------------5--------0---------|
B|--------------------------------8-------8----------------|
G|--9-------------11---------------------------------------|
D|----9---9---------12--12----------7---7----------5---5---|
A|--7---7---7------9---9---9------5---5---5------3---3---3-|
E|---------------------------------------------------------|

e|------7---7------5---------------------------------------|
B|-----------------------8-7-------------------------------|
G|--------------------------------9----Let-Ring------------|
D|----5---5----------7---7----------9---9---------9---9----|
A|--3---3---3------5---5---5------7---7---7-----7---7---7--|
E|---------------------------------------------------------|
(this bit has 2 guitars, but i have tabbed it for 1)
e|------7---7-----10--------------------5--------0---------|
B|----------------------12-10-----8-------8----------------|
G|---------------------------------------------------2-----|
D|----9---9---------12--12----------7---7----------2---2---|
A|--7---7---7------9---9---9------5---5---5------0-------0-|
E|---------------------------------------------------------|

e|------7---7------5---------------------------------------|
B|-----------------------8-7-------------------------------|
G|-------------------------------9----Let-Ring-------------|
D|----5---5----------7---7---------9---9----------9---9----|
A|--3---3---3------5---5---5-----7---7---7------7---7---7--|
E|---------------------------------------------------------|

Verse 1:
Guitar 1

e|-------------------------------------|
B|-------------------------------------|
G|-------------------------------------|
D|----9---9------12--12-------7---7----|
A|--7---7---7---9---9---9---5---5---5--|
E|-------------------------------------|

e|-------------------------------------|
B|-------------------------------------|
G|-------------------------------------|
D|----5---5-------5---5-------7---7----|
A|--3---3---3---3---3---3---5---5---5--|
E|-------------------------------------|

e|-------------------------|
B|-------------------------|
G|-------------------------|
D|----9---9-------9---9----|
A|--7---7---7---7---7---7--|
E|-------------------------|

e|-------------------------------------|
B|-------------------------------------|
G|-------------------------------------|
D|----9---9------12--12-------7---7----|
A|--7---7---7---9---9---9---5---5---5--|
E|-------------------------------------|

e|-------------------------------------|
B|-------------------------------------|
G|------2------------------------------|
D|----2---2-------5---5-------7---7----|
A|--0-------0---3---3---3---5---5---5--|
E|-------------------------------------|

e|-------------------------|
B|-------------------------|
G|-------------------------|
D|----9---9-------9---9----|
A|--7---7---7---7---7---7--|
E|-------------------------|


Verse 2:
Guitar 1
e|-------------------------------------------------------------|
B|-------------------------------------------------------------|
G|-------------------------------------------------------------|
D|---9-9-9-9-9-9--12-12-12-12-12-12--7-7-7-7-7-7--5-5-5-5-5-5--|
A|---7-7-7-7-7-7--9--9--9--9--9--9---5-5-5-5-5-5--3-3-3-3-3-3--|
E|-------------------------------------------------------------|
PM   . . . . . .  .  .  .  .  .  .   . . . . . .  . . . . . .

e|--------------------------------------------------------|
B|--------------------------------------------------------|
G|--------------------------------------------------------|
D|---5-5-5-5-5-5--7-7-7-7-7-7--9-9-9-9-9-9--9-9-9-9-9-9---|
A|---3-3-3-3-3-3--5-5-5-5-5-5--7-7-7-7-7-7--7-7-7-7-7-7---|
E|--------------------------------------------------------|
PM   . . . . . .  . . . . . .  . . . . . .  . . . . . .

Guitar 2
e|--------------------------------|
B|--------------------------------|
G|-------------7------------------|
D|---------------10-9-7-9-10-9~~--|
A|--------------------------------|
E|--------------------------------|

e|-------------------------------------------------------------|
B|-------------------------------------------------------------|
G|-------------------------------------------------------------|
D|---9-9-9-9-9-9--12-12-12-12-12-12--7-7-7-7-7-7--2-2-2-2-2-2--|
A|---7-7-7-7-7-7--9--9--9--9--9--9---5-5-5-5-5-5--0-0-0-0-0-0--|
E|-------------------------------------------------------------|
PM   . . . . . .  .  .  .  .  .  .   . . . . . .  . . . . . .

e|--------------------------------------------------------|
B|--------------------------------------------------------|
G|--------------------------------------------------------|
D|---5-5-5-5-5-5--7-7-7-7-7-7--9-9-9-9-9-9--9-9-9-9-9-9---|
A|---3-3-3-3-3-3--5-5-5-5-5-5--7-7-7-7-7-7--7-7-7-7-7-7---|
E|--------------------------------------------------------|
PM   . . . . . .  . . . . . .  . . . . . .  . . . . . .

Guitar 2
e|--------------------------------|
B|--------------------------------|
G|-------------7------------------|
D|---------------10-9-7-9-10-9~~--|
A|--------------------------------|
E|--------------------------------|

Guitar 1
e|-------------------------------------------------------------|
B|-------------------------------------------------------------|
G|-------------------------------------------------------------|
D|---9-9-9-9-9-9--12-12-12-12-12-12--7-7-7-7-7-7--5-5-5-5-5-5--|
A|---7-7-7-7-7-7--9--9--9--9--9--9---5-5-5-5-5-5--3-3-3-3-3-3--|
E|-------------------------------------------------------------|
PM   . . . . . .  .  .  .  .  .  .   . . . . . .  . . . . . .

e|--------------------------------------------------------|
B|--------------------------------------------------------|
G|--------------------------------------------------------|
D|---5-5-5-5-5-5--7-7-7-7-7-7--9-9-9-9-9-9--9-9-9-9-9-9---|
A|---3-3-3-3-3-3--5-5-5-5-5-5--7-7-7-7-7-7--7-7-7-7-7-7---|
E|--------------------------------------------------------|
PM   . . . . . .  . . . . . .  . . . . . .  . . . . . .

Guitar 2
e|--------------------------------|
B|--------------------------------|
G|-------------7------------------|
D|---------------10-9-7-9-10-9~~--|
A|--------------------------------|
E|--------------------------------|

e|-------------------------------------------------------------|
B|-------------------------------------------------------------|
G|-------------------------------------------------------------|
D|---9-9-9-9-9-9--12-12-12-12-12-12--7-7-7-7-7-7--2-2-2-2-2-2--|
A|---7-7-7-7-7-7--9--9--9--9--9--9---5-5-5-5-5-5--0-0-0-0-0-0--|
E|-------------------------------------------------------------|
PM   . . . . . .  .  .  .  .  .  .   . . . . . .  . . . . . .

e|-----------------------------|
B|-----------------------------|
G|-----------------------------|
D|---5-5-5-5-5-5--7-7-7-7-7-7--|
A|---3-3-3-3-3-3--5-5-5-5-5-5--|
E|-----------------------------|
PM   . . . . . .  . . . . . .

You can figure out the strumming pattern of the next bit, its easy.

e|------0------------|
B|------0------------|
G|--9---9---12---7---|   x2
D|--9---9---12---7---|
A|--7---7---10---5---|
E|--0---0------------|

e|--0------------------------------------|
B|--0------------------------------------|
G|--9---12---7---5---5---7---9---12---7--|
D|--9---12---7---5---5---7---9---12---7--|
A|--7---10---5---3---3---5---7---10---5--|
E|--0------------------------------------|
                                                  x5
e|--0------------------------------------|
B|--0------------------------------------|
G|--9---12---7---2---5---7---9---12---7--|
D|--9---12---7---2---5---7---9---12---7--|
A|--7---10---5---0---3---5---7---10---5--|
E|--0------------------------------------|

On 6th time, play this:
e|--0------------------------0-------0-----|
B|--0------------------------0------0----0-|
G|--9---12---7---2---5---7---0-----0----0--|
D|--9---12---7---2---5---7---2----2--------|
A|--7---10---5---0---3---5---2---2---------|
E|--0------------------------0--0----------|


Bridge:
e|-----------------|
B|----7-8-7--------|
G|--9-------9-7-9--|
D|-----------------|   x3
A|-----------------|
E|-----------------|

e|-----------------|
B|------7--7-7-7---|
G|--9-9------------|
D|-----------------|   x1
A|-----------------|
E|-----------------|

e|-----------------|
B|----7-8-7--------|
G|--9-------9-7-9--|
D|-----------------|   x1
A|-----------------|
E|-----------------|

e|----------------------7------------|
B|----7-8-7---7-8--8-10---10-8-7-8---|
G|--9-------9------------------------|
D|-----------------------------------|
A|-----------------------------------|
E|-----------------------------------|
                                         x2
e|-----------------------------------|
B|----7-8-7-----7----7-8-7-----------|
G|--9-------9-7----9-------9-7-9-----|
D|-----------------------------------|
A|-----------------------------------|
E|-----------------------------------|


e|-----------------|
B|----7-8-7--------|
G|--9-------9-7-9--|
D|-----------------|   x2
A|-----------------|
E|-----------------|

e|-----------------|
B|------7--7-7-7---|
G|--9-9------------|
D|-----------------|   x1
A|-----------------|
E|-----------------|

e|-----------------|
B|----7-8-7--------|
G|--9-------9-7-9--|
D|-----------------|   x3
A|-----------------|
E|-----------------|

e|-----------------|
B|------7--7-7-7---|
G|--9-9------------|
D|-----------------|   x1
A|-----------------|
E|-----------------|

e|-----------------|
B|----7-8-7--------|
G|--9-------9-7-9--|
D|-----------------|   x1
A|-----------------|
E|-----------------|

e|----------------------7------------|
B|----7-8-7---7-8--8-10---10-8-7-8---|
G|--9-------9------------------------|
D|-----------------------------------|
A|-----------------------------------|
E|-----------------------------------|
                                          x2
e|-----------------------------------|
B|----7-8-7-----7----7-8-7-----------|
G|--9-------9-7----9-------9-7-9-----|
D|-----------------------------------|
A|-----------------------------------|
E|-----------------------------------|


Guitar 1
e|--------------------------------|
B|--------------------------------|
G|--9-------12---14---7---12---9--|
D|--9---12--12---14---7---12---9--|
A|--7---9---10---12---5---10---7--|
E|--------------------------------|

Guitar 2
e|----------------------|
B|----------------------|
G|----------------------|
D|--10-9-7----7---------|
A|---------10---10-9-7--|
E|----------------------|

Guitar 1
e|-------------------------------------------|
B|-------------------------------------------|
G|--9-------12---14---7---12---9---12---11---|
D|--9---12--12---14---7---12---9---10---9----|
A|--7---9---10---12---5---10---7-------------|
E|-------------------------------------------|

Guitar 1
e|--------------------------------|
B|--------------------------------|
G|--9-------12---14---7---12---9--|
D|--9---12--12---14---7---12---9--|
A|--7---9---10---12---5---10---7--|
E|--------------------------------|

Guitar 2
e|----------------------|
B|----------------------|
G|----------------------|
D|--10-9-7----7---------|
A|---------10---10-9-7--|
E|----------------------|

Guitar 1
e|-------------------------------------------|
B|-------------------------------------------|
G|--9-------12---14---7---12---9---12---11---|
D|--9---12--12---14---7---12---9---10---9----|
A|--7---9---10---12---5---10---7-------------|
E|-------------------------------------------|

Bridge 2:
e|-----------------|
B|----7-8-7--------|
G|--9-------9-7-9--|
D|-----------------|   x2
A|-----------------|
E|-----------------|

e|-----------------|
B|------7--7-7-7---|
G|--9-9------------|
D|-----------------|   x1
A|-----------------|
E|-----------------|

e|-----------------|
B|----7-8-7--------|
G|--9-------9-7-9--|
D|-----------------|   x3
A|-----------------|
E|-----------------|

e|-----------------|
B|------7--7-7-7---|
G|--9-9------------|
D|-----------------|   x1
A|-----------------|
E|-----------------|

e|-----------------|
B|----7-8-7--------|
G|--9-------9-7-9--|
D|-----------------|   x1
A|-----------------|
E|-----------------|

e|----------------------7------------|
B|----7-8-7---7-8--8-10---10-8-7-8---|
G|--9-------9------------------------|
D|-----------------------------------|
A|-----------------------------------|
E|-----------------------------------|
                                           x2
e|-----------------------------------|
B|----7-8-7-----7----7-8-7-----------|
G|--9-------9-7----9-------9-7-9-----|
D|-----------------------------------|
A|-----------------------------------|
E|-----------------------------------|

e|-----------------|
B|----7-8-7--------|
G|--9-------9-7-9--|
D|-----------------|   x2
A|-----------------|
E|-----------------|

e|-----------------|
B|------7--7-7-7---|
G|--9-9------------|
D|-----------------|   x1
A|-----------------|
E|-----------------|

e|-----------------|
B|----7-8-7--------|
G|--9-------9-7-9--|
D|-----------------|   x3
A|-----------------|
E|-----------------|

e|-----------------|
B|------7--7-7-7---|
G|--9-9------------|
D|-----------------|   x1
A|-----------------|
E|-----------------|

e|-----------------|
B|----7-8-7--------|
G|--9-------9-7-9--|
D|-----------------|   x1
A|-----------------|
E|-----------------|


e|----------------------7------------|
B|----7-8-7---7-8--8-10---10-8-7-8---|
G|--9-------9------------------------|
D|-----------------------------------|
A|-----------------------------------|
E|-----------------------------------|
                                           x2
e|-----------------------------------|
B|----7-8-7-----7----7-8-7-----------|
G|--9-------9-7----9-------9-7-9-----|
D|-----------------------------------|
A|-----------------------------------|
E|-----------------------------------|

Solo:

Guitar solo 1 (this comes in at about 4:30)
e|-------------------------------------------------------------------------|
b|-------------------------------------------------------------------------|
G|---------------7--9~~----------------------------------------------------|
D|--5~~~~~--7/9---------7~~--5---5------------------10-9-7----7------------|
A|-----------------------------7-----7--5-----/7~~---------10---10-9-7-----|
E|-----------------------------------------7-------------------------------|

e|-----------------12-14-15-14-12----12----------------------12-----------------------------------|
b|-15b(17)-15b(17)----------------15----15qbp12-----------12----15p12---------12------------------|
G|------------------------------------------------14b(16)-------------14b(16)----14p12-----/14~~--|
D|--------------------------------------------------------------------------------------14--------|
A|------------------------------------------------------------------------------------------------|
E|------------------------------------------------------------------------------------------------|


e|------------------------|
b|------------------------|
G|-12-11------------------|
D|-------12-----14~~~~----|
A|----------12------------|
E|------------------------|

     trip.
e|------------15h19p15---------15h19p15-----------15h19p15----------15h19p15------------|
b|--17-17-17----------19p15h19---------15-15-15h17---------19p15h19------------19p15h19-|
G|--------------------------------------------------------------------------------------|
D|--------------------------------------------------------------------------------------|
A|--------------------------------------------------------------------------------------|
E|--------------------------------------------------------------------------------------|

e|-19p15----------15h19p15-----------15------19-19b(20)-19b(21)--\12------|
b|-------19p15h19----------19p15h19---------------------------------------|
G|---------------------------------------16-------------------------------|
D|------------------------------------------------------------------------|
A|------------------------------------------------------------------------|
E|------------------------------------------------------------------------|
[ Tab from: http://www.guitaretab.com/i/iron-maiden/26014.html ]
e|-----------------------------------------------------------------------------------|
b|-15b(17)~--15b(17)~--15b(17)--15--12-----------------------------------------------|
G|-------------------------------------14b(16)-14--12qbr-----12----------------------|
D|--------------------------------------------------------14-------------------------|
A|---------------------------------------------------------------14-13-12-10---------|
E|----------------------------------------------------------------------------12~~~~-|

                                                   NH
e|-5h7--t10p5-t10p7-t12p7p5----5h7p6p5--------5-5--[7]---15-17-15-14-15-14----14-------------------|
b|--------------------------8------------8p5-----------0-------------------17----17-15--17/20-17~~-|
G|-------------------------------------------------------------------------------------------------|
D|-------------------------------------------------------------------------------------------------|
A|-------------------------------------------------------------------------------------------------|
E|-------------------------------------------------------------------------------------------------|


e|----------------------17-------17-19----17-19-20-20b(22)~~~-----|
b|-17-19-20-19-17-19-19----19-20-------20-------------------------|
G|----------------------------------------------------------------|
D|----------------------------------------------------------------|
A|----------------------------------------------------------------|
E|----------------------------------------------------------------|


Guitar solo 2 - comes right after solo 1 at around 5:00
                          * = whammy dive half a step
           AH  AH  AH
e|---------------------------------------------5h7p5--5-7-------------------------------------|
b|------------------------*------------------5------------9-9-10-9----------------------------|
G|--/6--6--<6>-<6>-<6>--(<6>)\/\/~~----/4--2-----------------------11-9-11-9\7-9-7-9-7\6--7/9-|
D|--------------------------------------------------------------------------------------------|
A|--------------------------------------------------------------------------------------------|
E|--------------------------------------------------------------------------------------------|

e|------------9-------------------------------------------------------------------|
b|----9-10-12---12b(14)-r12\---------10h12p10\9--10----9h10p9---------------------|
G|-11----------------------------11-----------------11--------11p9-9-9--9b(11)r9\-|
D|----------------------------11--------------------------------------------------|
A|--------------------------------------------------------------------------------|
E|--------------------------------------------------------------------------------|

e|-14----------14-17p14-16p14----------------------|
b|----14-17qb~----------------17b(19)--16--17-14---|
G|-------------------------------------------------|
D|-------------------------------------------------|
A|-------------------------------------------------|
E|-------------------------------------------------|
                                                                                         
         whammy dive if you like
e|-----------------------------------------------------------------------------------------------------------|
b|---------14-17p14-17p14-14-17p14-14-14-14-17p14-17p14-13-15-14-13-14-13-12-10-12b(13)-10--12b(14)-r12~~~\--|
G|-16b(18)---------------------------------------------------------------------------------------------------|
D|-----------------------------------------------------------------------------------------------------------|
A|-----------------------------------------------------------------------------------------------------------|
E|-----------------------------------------------------------------------------------------------------------|

Lead
e|-------------------------------------------------------------|
b|-------------------------------------------------------------|
G|---------9---------------------------------------------------|
D|-11~~~~----12--11--9--11--12--11--9-----9-----9--/11~~~------|
A|------------------------------------12-----12----------------|
E|-------------------------------------------------------------|
                                                                   x2
e|-------------------------------------------------------------|
b|-------------------------------------------------------------|
G|---------9---------------------------------------------------|
D|-11~~~~----12--11--9--11--12--11--9-----9--------------------|
A|------------------------------------12-----12-11-9~~~--------|
E|-------------------------------------------------------------|

Guitar Solo 3
e|--------------------------------------------------------------------------------------15b(17)~--|
b|-15b(17)~--15-13-12-13-12--13p10h12p10h12--13p12p10---------------------------------------------|
G|----------------------------------------------------14p12p11--9--9p7p5---5----------------------|
D|-----------------------------------------------------------------------5---7p5------------------|
A|-------------------------------------------------------------------------------7-7-7\-----------|
E|------------------------------------------------------------------------------------------------|

e|--15-14------------------------------------------------------------------------|
b|--------17----17-15-15-14-12----12---------------------------------------------|
G|-----------16----------------15----15-14-12----12------------------------------|
D|--------------------------------------------14----14-13-12----12---------------|
A|-----------------------------------------------------------14----14-12-10\-----|
E|-------------------------------------------------------------------------------|

e|--7-8-----------------------------------------------------------------7-7h10p8p7--|
b|------12-t13p12p8h12--t13p0h8h12p8-----------t12p8--15p13p0--8h12p8---------------|
G|-----------------------------------10---------------------------------------------|
D|--------------------------------------x-------------------------------------------|
A|--------------------------------------x-7-----------------------------------------|
E|----------------------------------------------------------------------------------|

e|----------7h10p8p7-----7h8h10--7h10p7p0--7h8h10p8----8h12p8----8h10p8----8h12p8---|
b|-8h12p8p0----------8p0----------------------------10--------10--------10----------|
G|----------------------------------------------------------------------------------|
D|----------------------------------------------------------------------------------|
A|----------------------------------------------------------------------------------|
E|----------------------------------------------------------------------------------|

e|-17-17-16-16-15-14--12p10p7---7h10p8p7--7-7------10p8---------|
b|----------------------------8---------------8h12------12-12~--|
G|--------------------------------------------------------------|
D|--------------------------------------------------------------|
A|--------------------------------------------------------------|
E|--------------------------------------------------------------|

e|-------------------------------------------------------------------------------|
b|-------------------------------------------------------------------------------|
G|-4p0h4p0h4p0h4p0h4p0h4p0h4p0h4p0h4p0h4-5p0h5p0h5p0h5p0h5p0h5p0h5p0h5p0h5-------|
D|-------------------------------------------------------------------------------|
A|-------------------------------------------------------------------------------|
E|-------------------------------------------------------------------------------|

e|-----------------------------------------------------------------------------------------------|
b|------------------------------------------------------------------------------------10b(12)~~~-|
G|-7p0h7p0h7p0h7p0h7p0h7p0h7p0h7p0h7p0h7-0-9p0h9p0h9-11p0-11p0-12p0h12p0h12p0h12p0--0------------|
D|-----------------------------------------------------------------------------------------------|
A|-----------------------------------------------------------------------------------------------|
E|-----------------------------------------------------------------------------------------------|

e|--------12----12h15p12----12----12h15p12----15p12----12h15p12----12-----12h14p12------12-------|
b|--12-15----15----------15----15----------15-------15----------15----15------------15-----15----|
G|-----------------------------------------------------------------------------------------------|
D|-----------------------------------------------------------------------------------------------|
A|-----------------------------------------------------------------------------------------------|
E|-----------------------------------------------------------------------------------------------|

e|--12h15p12-14p12-----12-12-12h14-------12----12---------------------------------------|
b|-----------------14--------------15-15----15----15-15b(17)-15b(17)-15p12-15p12--------|
G|---------------------------------------------------------------------------------15---|
D|--------------------------------------------------------------------------------------|
A|--------------------------------------------------------------------------------------|
E|--------------------------------------------------------------------------------------|

e|---------------------------------------------|
b|---------------------------------------------|
G|-14p12----12---------------------------------|
D|-------14----14p12---------------------------|
A|-------------------14p12-14p12p10------------|
E|-----------------------------------12~~~\----|

Guitar 1
e|--------------------------------|
B|--------------------------------|
G|--9-------12---14---7---12---9--|
D|--9---12--12---14---7---12---9--|
A|--7---9---10---12---5---10---7--|
E|--------------------------------|

Guitar 2
e|----------------------|
B|----------------------|
G|----------------------|
D|--10-9-7----7---------|
A|---------10---10-9-7--|
E|----------------------|

Guitar 1
e|-------------------------------------------|
B|-------------------------------------------|
G|--9-------12---14---7---12---9---12---11---|
D|--9---12--12---14---7---12---9---10---9----|
A|--7---9---10---12---5---10---7-------------|
E|-------------------------------------------|

Interlude:
e|-------------------------------------------------------------|
b|-------------------------------------------------------------|
G|---------7---------------------------------------------------|
D|-9~~~-----10--9---7--9--10--9-----7-----7----7--7/9~~~-------|
A|------------------------------------10-----10----------------|
E|-------------------------------------------------------------|
                                                                     x2
e|-----------------------------------------------------|----------|
b|-----------------------------------------------------|----------|
G|---------7-------------------------------------------|---12-11--|
D|-9~~~-----10--9---7--9--10--9-----7-----7------------|---10--9--|
A|------------------------------------10-----10--9--7--|----------|
E|-----------------------------------------------------|----------|


Bridge 2:
e|-----------------|
B|----7-8-7--------|
G|--9-------9-7-9--|
D|-----------------|    x2
A|-----------------|
E|-----------------|

e|-----------------|
B|------7--7-7-7---|
G|--9-9------------|
D|-----------------|
A|-----------------|    x1
E|-----------------|

e|-----------------|
B|----7-8-7--------|
G|--9-------9-7-9--|
D|-----------------|    x3
A|-----------------|
E|-----------------|

e|-----------------|
B|------7--7-7-7---|
G|--9-9------------|
D|-----------------|
A|-----------------|    x1
E|-----------------|

e|-----------------|
B|----7-8-7--------|
G|--9-------9-7-9--|
D|-----------------|    x1
A|-----------------|
E|-----------------|

e|----------------------7------------|
B|----7-8-7---7-8--8-10---10-8-7-8---|
G|--9-------9------------------------|
D|-----------------------------------|
A|-----------------------------------|
E|-----------------------------------|
                                          x2
e|-----------------------------------|
B|----7-8-7-----7----7-8-7-----------|
G|--9-------9-7----9-------9-7-9-----|
D|-----------------------------------|
A|-----------------------------------|
E|-----------------------------------|

e|-----------------|
B|----7-8-7--------|
G|--9-------9-7-9--|
D|-----------------|    x2
A|-----------------|
E|-----------------|

e|-----------------|
B|------7--7-7-7---|
G|--9-9------------|
D|-----------------|
A|-----------------|    x1
E|-----------------|

e|-----------------|
B|----7-8-7--------|
G|--9-------9-7-9--|
D|-----------------|    x3
A|-----------------|
E|-----------------|

e|-----------------|
B|------7--7-7-7---|
G|--9-9------------|
D|-----------------|
A|-----------------|    x1
E|-----------------|

e|-----------------|
B|----7-8-7--------|
G|--9-------9-7-9--|
D|-----------------|    x1
A|-----------------|
E|-----------------|

e|----------------------7------------|
B|----7-8-7---7-8--8-10---10-8-7-8---|
G|--9-------9------------------------|
D|-----------------------------------|
A|-----------------------------------|
E|-----------------------------------|
                                          x2
e|-----------------------------------|
B|----7-8-7-----7----7-8-7-----------|
G|--9-------9-7----9-------9-7-9-----|
D|-----------------------------------|
A|-----------------------------------|
E|-----------------------------------|

e|-----------------|
B|----7-8-7--------|
G|--9-------9-7-9--|
D|-----------------|    x2
A|-----------------|
E|-----------------|

e|-----------------|
B|------7--7-7-7---|
G|--9-9------------|
D|-----------------|
A|-----------------|    x1
E|-----------------|

e|-----------------|
B|----7-8-7--------|
G|--9-------9-7-9--|
D|-----------------|    x3
A|-----------------|
E|-----------------|

e|-----------------|
B|------7--7-7-7---|
G|--9-9------------|
D|-----------------|
A|-----------------|    x1
E|-----------------|

e|-----------------|
B|----7-8-7--------|
G|--9-------9-7-9--|
D|-----------------|    x1
A|-----------------|
E|-----------------|

e|----------------------7------------|
B|----7-8-7---7-8--8-10---10-8-7-8---|
G|--9-------9------------------------|
D|-----------------------------------|
A|-----------------------------------|
E|-----------------------------------|
                                      x2
e|-----------------------------------|  |--------------------------|
B|----7-8-7-----7----7-8-7-----------|  |----------8---------------|
G|--9-------9-7----9-------9-7-9-----|  |---7--9-------9---7-------|
D|-----------------------------------|  |--------------------------|
A|-----------------------------------|  |--------------------------|
E|-----------------------------------|  |--------------------------|
Outro:

e|--------------------------------------5--------0---------|
B|--------------------------------8-------8----------------|
G|--9-------------11---------------------------------------|
D|----9---9---------12--12----------7---7----------5---5---|
A|--7---7---7------9---9---9------5---5---5------3---3---3-|
E|---------------------------------------------------------|

e|------7---7------5---------------------------------------|
B|-----------------------8-7-------------------------------|
G|--------------------------------9----Let-Ring------------|
D|----5---5----------7---7----------9---9---------9---9----|
A|--3---3---3------5---5---5------7---7---7-----7---7---7--|
E|---------------------------------------------------------|

e|------7---7-----10--------------------5--------0---------|
B|----------------------12-10-----8-------8----------------|
G|---------------------------------------------------2-----|
D|----9---9---------12--12----------7---7----------2---2---|
A|--7---7---7------9---9---9------5---5---5------0-------0-|
E|---------------------------------------------------------|

e|------7---7------5---------------------------------------|
B|-----------------------8-7-------------------------------|
G|-------------------------------9----Let-Ring-------------|
D|----5---5----------7---7---------9---9----------9---9----|
A|--3---3---3------5---5---5-----7---7---7------7---7---7--|
E|---------------------------------------------------------|

e|-------------------------------------|
B|-------------------------------------|
G|-------------------------------------|
D|----9---9------12--12-------7---7----|
A|--7---7---7---9---9---9---5---5---5--|
E|-------------------------------------|

e|-------------------------------------|
B|-------------------------------------|
G|-------------------------------------|
D|----5---5-------5---5-------7---7----|
A|--3---3---3---3---3---3---5---5---5--|
E|-------------------------------------|

e|-------------------------|
B|-------------------------|
G|-------------------------|
D|----9---9-------9---9----|
A|--7---7---7---7---7---7--|
E|-------------------------|

e|-------------------------------------|
B|-------------------------------------|
G|-------------------------------------|
D|----9---9------12--12-------7---7----|
A|--7---7---7---9---9---9---5---5---5--|
E|-------------------------------------|

e|-------------------------------------|
B|-------------------------------------|
G|------2------------------------------|
D|----2---2-------5---5-------7---7----|
A|--0-------0---3---3---3---5---5---5--|
E|-------------------------------------|

e|------------7--------|
B|----------8----------|
G|--------9---------8--|
D|------9--------9-----|
A|----7----------------|
E|--7------------------|

Thanks for looking!

Please rate 5! :)
Related for Dance Of Death tab
Dance Of Death chords by Iron Maiden