Song name
# A B C D E F G H I J K L M N O P Q R S T U V W X Y Z

Iron Maiden - Prodigal Son tab

Prodigal Son



Intro:

||-------------0------------0------------0---------------------||
||------0-----0------0-----0------0-----0----------------------||
||o----8-----8------6-----6------5-----5------1h2p1-----1h2p1-o||         X2
||o---9-----9------7-----7------5-----5------2-----2---2------o||
||---9-----9------7-----7------5-----5------2---------2--------||
||--7-----7------5-----5------3-----3------0---------0---------||


    strum ....................
||--0------0------0------0------||
||--0------0------0------0------||
||o-8-9-8--6-7-6--4-5-4--1-2-0-o||       
||o-9-X-9--7-X-7--5------2-/-/-2||
||--9------7------5------2------||
||--7------5------3------0------||


   Riff A                                                      (end Riff A)
||--------------------------------------------------------------------------||
||-----0----------0----------0----------2-----3-2-3-2------0----------0-----||
||-----1-/-/------1-/-/------1-/-/------2-/-/-2-2-2-2------1-/-/------1-/-/-||
||-5-7-2-/-/--5-7-2-/-/--5-7-2-/-/--5-2-2-/-/-4-2-4-2--5-7-2-/-/--5-7-2-/-/-||
||-5-7-2------5-7-2------5-7-2------5-2-0-----0-0-0-0--5-7-2------5-7-2-----||
||-3-5-0------3-5-0------3-5-0------3-0----------------3-5-0------3-5-0-----||

   Fill
||--------------------------------------------------------------------------||
||--------------------------------------------------------------------------||
||--------------------------------------------------------------------------||
||--2h4p2s5-5-5h7p5---------------------------------------------------------||
||------------------7-------------------------------------------------------||
||--------------------------------------------------------------------------||



Em                  G                                       
Listen to me Lamia, listen to what I've got to say.       
Am                       C                 D 
I've got these feelings, and they won't go away.          
Em                          G                             
I've got these fears inside that'll bring me to my knees. 
Am                      C                 D 
Oh help me Lamia or I'm sure I'll die, oh please.

Em                      G
I feel unsettled, now I know that I've done wrong.
Am                                        C             D
I've messed around with mystic things and magic for too long.
Em                              G
I feel I'm being paid with this nightmare inside me,
Am                                       C                 D
The devil's got a hold on my soul and he just won't let me be.

I'm on my knees,                oh help me please.
I'm on my knees,                help me please. 
||--------------------------------------------------------------------------||
||-----0----------0----------0----------2-----3-2-3-2------0----------0-----||
||-----1-/-/------1-/-/------1-/-/------2-/-/-2-2-2-2------1-/-/------1-/-/-||
||-5-7-2-/-/--5-7-2-/-/--5-7-2-/-/--5-2-2-/-/-4-2-4-2--5-7-2-/-/--5-7-2-/-/-||
||-5-7-2------5-7-2------5-7-2------5-2-0-----0-0-0-0--5-7-2------5-7-2-----||
||-3-5-0------3-5-0------3-5-0------3-0----------------3-5-0------3-5-0-----||


A  B     C      B           E
Oh Lamia please try to help me.
    A             B          C           B            D   Dsus4   D
The devil's got a hold of my soul and he won't let me be.
A     B             C          B          E
Lamia I've got this curse, I'm turning to bad.
    A             B          C              B          E    D    E    D
The devil's got a hold of my soul, and it's driving me mad. Oh……………………

SOLO

||--------------------------------------------------------------------------||
||--------------------------------------------------------------------------||
||--------------------------------------------------------------------------||
||--------------------------------------------------------------------------||
||--------------------------------------------------------------------------||
||--------------------------------------------------------------------------||




A  B     C      B           E
Oh Lamia please try to help me.
    A             B          C           B            D   Dsus4   D
The devil's got a hold of my soul and he won't let me be.
A     B             C          B          E
Lamia I've got this curse, I'm turning to bad.
    A             B          C              B          E    D    E    D
The devil's got a hold of my soul, and it's driving me mad. Oh……………………
 


    OLIVIER SCHWEBEL
(schwebel@labri.u-bordeaux.fr) (New Suggestions by Lee Morant (amstradcpc464@yahoo.com))
Tap to rate this tab
# A B C D E F G H I J K L M N O P Q R S T U V W X Y Z