Song name
# A B C D E F G H I J K L M N O P Q R S T U V W X Y Z

Iron Maiden - Holy Smoke tab

Guitar 1
alterzoid@musician.org 

UP THE IRONS!!!
                                                                    
E||------16--17--16--19-----16--17--|----16--19--16--17-----19-----|
B||--17-----------------------------|------------------------------|
G||---------------------------------|------------------------------|
D||---------------------------------|------------------------------|
A||---------------------------------|------------------------------|
E||---------------------------------|------------------------------|


                                                                 
------------------14-------------|--------14-------------14-----|
------16--17--16---------16--17--|----16------16--17------------|
--16-----------------------------|------------------------------|
---------------------------------|------------------------------|
---------------------------------|------------------------------|
---------------------------------|------------------------------|


                                                                  
------14--15--14--17-----14------|----------------12---------12--|
--15-----------------------------|----14--15--14---------14------|
-----------------------------14--|-------------------------------|
---------------------------------|-------------------------------|
---------------------------------|-------------------------------|
---------------------------------|-------------------------------|


                                                                    
----16--17--16--19--16--17--16--|--19--16--17--16--19--17--16------|
--------------------------------|------------------------------17--|
--------------------------------|----------------------------------|
--------------------------------|----------------------------------|
--------------------------------|----------------------------------|
--------------------------------|----------------------------------|


                                                                    
----16--17--16--19--16--17--16--|--19--16--17--16--19--17--16------|
--------------------------------|----------------------------------|
--------------------------------|------------------------------16--|
--------------------------------|----------------------------------|
--------------------------------|----------------------------------|
--------------------------------|----------------------------------|


                                                                    
----------------14--------------|--14--------------14--12--11--10--|
----16--17--16------16--17--16--|------16--17--16------------------|
--------------------------------|----------------------------------|
--------------------------------|----------------------------------|
--------------------------------|----------------------------------|
--------------------------------|----------------------------------|


                                                                 
----14--15--14--17--15--14------|----------------12--10--9--12--|
--------------------------------|----14--15--14-----------------|
----------------------------14--|-------------------------------|
--------------------------------|-------------------------------|
--------------------------------|-------------------------------|
--------------------------------|-------------------------------|


                                                                                         
----16--17--16--19--16--17--16--|--19--16--17--16--19--17--16--0---|--------------------|
--------------------------------|------------------------------17--|--------------------|
--------------------------------|------------------------------16--|----------------19--|
--------------------------------|----------------------------------|----------------19--|
--------------------------------|----------------------------------|----------------17--|
--------------------------------|----------------------------------|--------------------|


                                                                                         
----------------15--|--------------------|---------------------12--|----------------10--|
----------------15--|--------------------|---------------------12--|----------------10--|
--------------------|----------------14--|----------12-----14------|--------------------|
----------------17--|----------------14--|----------12-----14--14--|----------------12--|
--------------------|----------------12--|----------10-----12------|--------------------|
--------------------|--------------------|-------------------------|--------------------|


                                                                                         
----------------15--|--------------------|---------------------12--|----------------10--|
----------------15--|--------------------|---------------------12--|----------------10--|
----------------12--|----------------14--|----------12-----14------|--------------------|
--------------------|----------------14--|----------12-----14--14--|----------------12--|
--------------------|----------------12--|----------10-----12------|--------------------|
--------------------|--------------------|-------------------------|--------------------|


                                                                                         
----------------15--|--------------------|---------------------12--|----------------10--|
----------------15--|--------------------|---------------------12--|----------------10--|
----------------12--|----------------14--|----------12-----14------|--------------------|
--------------------|----------------14--|----------12-----14--14--|----------------12--|
--------------------|----------------12--|----------10-----12------|--------------------|
--------------------|--------------------|-------------------------|--------------------|


                                                                                         
----------------15--|--------------------|---------------------12--|----------------15--|
----------------15--|--------------------|---------------------12--|----------------15--|
----------------12--|----------------14--|----------12-----14------|--------------------|
--------------------|----------------14--|----------12-----14--14--|----------------17--|
--------------------|----------------12--|----------10-----12------|--------------------|
--------------------|--------------------|-------------------------|--------------------|


                                                                                        
--------------------|--------------------|--------------------12--|----------------15--|
----------------15--|--------------------|--------------------12--|----------------15--|
----------------14--|----------------14--|----------12--12--------|--------------------|
--------------------|----------------14--|----------12--12----14--|----------------17--|
----------------17--|----------------12--|----------10--10--------|--------------------|
--------------------|--------------------|------------------------|--------------------|


                                                                   
--------------------|--------------------|--------------------12--|
----------------15--|--------------------|------------------------|
----------------14--|----------------14--|----------12--12--------|
--------------------|----------------14--|----------12--12--------|
----------------17--|----------------12--|----------10--10--------|
--------------------|--------------------|------------------------|


                                                                
----12--10------10---------12--|----12--10------10---------12--|
------------12---------12------|------------12---------12------|
-------------------------------|-------------------------------|
-------------------------------|-------------------------------|
-------------------------------|-------------------------------|
-------------------------------|-------------------------------|


                                                                 
----12--10------10---------12--|----12--10------10--15--14--12--|
------------12---------12------|------------12------------------|
-------------------------------|--------------------------------|
-------------------------------|--------------------------------|
-------------------------------|--------------------------------|
-------------------------------|--------------------------------|


                                                                
----12--10------10---------12--|----12--10------10---------12--|
------------12---------12------|------------12---------12------|
-------------------------------|-------------------------------|
-------------------------------|-------------------------------|
-------------------------------|-------------------------------|
-------------------------------|-------------------------------|


                                                                                      
----12--10------10---------12--|----12--10------10--15--14--12--|----------------10--|
------------12---------12------|------------12--------------12--|----------------10--|
-------------------------------|--------------------------------|--------------------|
-------------------------------|----------------------------14--|----------------12--|
-------------------------------|--------------------------------|--------------------|
-------------------------------|--------------------------------|--------------------|


                                                                                         
----------------15--|--------------------|---------------------12--|----------------10--|
----------------15--|--------------------|---------------------12--|----------------10--|
----------------12--|----------------14--|----------12-----14------|--------------------|
--------------------|----------------14--|----------12-----14--14--|----------------12--|
--------------------|----------------12--|----------10-----12------|--------------------|
--------------------|--------------------|-------------------------|--------------------|


                                                                                         
----------------15--|--------------------|---------------------12--|----------------10--|
----------------15--|--------------------|---------------------12--|----------------10--|
----------------12--|----------------14--|----------12-----14------|--------------------|
--------------------|----------------14--|----------12-----14--14--|----------------12--|
--------------------|----------------12--|----------10-----12------|--------------------|
--------------------|--------------------|-------------------------|--------------------|


                                                                                         
----------------15--|--------------------|---------------------12--|----------------10--|
----------------15--|--------------------|---------------------12--|----------------10--|
----------------12--|----------------14--|----------12-----14------|--------------------|
--------------------|----------------14--|----------12-----14--14--|----------------12--|
--------------------|----------------12--|----------10-----12------|--------------------|
--------------------|--------------------|-------------------------|--------------------|


                                                                                         
----------------15--|--------------------|---------------------12--|----------------15--|
----------------15--|--------------------|---------------------12--|----------------15--|
----------------12--|----------------14--|----------12-----14------|--------------------|
--------------------|----------------14--|----------12-----14--14--|----------------17--|
--------------------|----------------12--|----------10-----12------|--------------------|
--------------------|--------------------|-------------------------|--------------------|


                                                                                        
--------------------|--------------------|--------------------12--|----------------15--|
----------------15--|--------------------|--------------------12--|----------------15--|
----------------14--|----------------14--|----------12--12--------|--------------------|
--------------------|----------------14--|----------12--12----14--|----------------17--|
----------------17--|----------------12--|----------10--10--------|--------------------|
--------------------|--------------------|------------------------|--------------------|


                                                                   
--------------------|--------------------|--------------------12--|
----------------15--|--------------------|------------------------|
----------------14--|----------------14--|----------12--12--------|
--------------------|----------------14--|----------12--12--------|
----------------17--|----------------12--|----------10--10--------|
--------------------|--------------------|------------------------|


                                                                
----12--10------10---------12--|----12--10------10---------12--|
------------12---------12------|------------12---------12------|
-------------------------------|-------------------------------|
-------------------------------|-------------------------------|
-------------------------------|-------------------------------|
-------------------------------|-------------------------------|


                                                                 
----12--10------10---------12--|----12--10------10--15--14--12--|
------------12---------12------|------------12------------------|
-------------------------------|--------------------------------|
-------------------------------|--------------------------------|
-------------------------------|--------------------------------|
-------------------------------|--------------------------------|


                                                                
----12--10------10---------12--|----12--10------10---------12--|
------------12---------12------|------------12---------12------|
-------------------------------|-------------------------------|
-------------------------------|-------------------------------|
-------------------------------|-------------------------------|
-------------------------------|-------------------------------|


                                                                 
----12--10------10---------12--|----12--10------10--15--14--12--|
------------12---------12------|------------12------------------|
-------------------------------|--------------------------------|
-------------------------------|--------------------------------|
-------------------------------|--------------------------------|
-------------------------------|--------------------------------|


                                                               
----16--17--16--19-----16--17--|----16--19--16--17-----19-----|
-------------------------------|------------------------------|
-------------------------------|------------------------------|
-------------------------------|------------------------------|
-------------------------------|------------------------------|
-------------------------------|------------------------------|


                                                                 
------------------14-------------|--------14-------------14-----|
------16--17--16---------16--17--|----16------16--17------------|
--16-----------------------------|------------------------------|
---------------------------------|------------------------------|
---------------------------------|------------------------------|
---------------------------------|------------------------------|


                                                                  
------14--15--14--17-----14------|----------------12---------12--|
--15-----------------------------|----14--15--14---------14------|
-----------------------------14--|-------------------------------|
---------------------------------|-------------------------------|
---------------------------------|-------------------------------|
---------------------------------|-------------------------------|


                                                                    
----16--17--16--19--16--17--16--|--19--16--17--16--19--17--16------|
--------------------------------|----------------------------------|
--------------------------------|----------------------------------|
--------------------------------|----------------------------------|
--------------------------------|------------------------------17--|
--------------------------------|----------------------------------|


                                                                                        
--------------------------------------------------|------------------------------------|
--------------------------------------------------|-----------------------12-----------|
--------------------------------------------------|-----------------------12--------12-|
--------------14-12-14-12-14-12-14-12-14-12-14-12-|--14-12-14-12-14-12-14-12-----------|
--17-17-17-17-------------------------------------|------------------------------------|
--------------------------------------------------|------------------------------------|


                                                   
--------------------------------------------------|
--12-10----10-12-10----10-12-10----10-12-10----10-|
--------12----------12----------12----------12----|
--------------------------------------------------|
--------------------------------------------------|
--------------------------------------------------|


                                                                                         
-------------------------------------10---|----------10--------|------------10--8-10-8--|
--12-10----10-12-10----10-12-10-----------|--------------------|------------------------|
--------12----------12----------12--------|--------------------|------------------------|
------------------------------------------|--------------------|------------------------|
------------------------------------------|--------------------|------------------------|
------------------------------------------|--------------------|------------------------|


                                                                             
----------------------|--7---------------29--|-------29-----29--29--29--29--|
--10------10----------|----------------------|------------------------------|
----------------------|-------------7--------|------------------------------|
----------------------|----------------------|------------------------------|
----------------------|----------------------|------------------------------|
----------------------|----------------------|------------------------------|


                                                                                  
--29--29--29--29--29----------|--26-24-------27-22-------24----------22----20----|
---------------------------24-|--------24-22-------24-22----24-22-------24----22-|
------------------------------|-----------------------------------24-------------|
------------------------------|--------------------------------------------------|
------------------------------|--------------------------------------------------|
------------------------------|--------------------------------------------------|


                                                                                   
--19-17-16----16-17-16----14-16-23----------|-------------------------------------|
-----------17----------17-----------22------|----20-22-20-19--20--20--------------|
--------------------------------------------|-------------------------21--20--21--|
--------------------------------------------|-------------------------------------|
--------------------------------------------|-------------------------------------|
--------------------------------------------|-------------------------------------|


                                                                         
--------------------|-----------------------|---------23------------21--|
--------------------|-----------------------|-------------------22--22--|
--------------19----|--------19------19-----|---------------------------|
--------------------|-----------------------|--19-----------------------|
--------------------|-----------------------|---------------------------|
--------------------|-----------------------|---------------------------|


                                                                                         
---------------19-21-21-26-24-21-19--|--26-24-21-19-21-26-24-21-26-24-21-19-21-26-24-21-|
-------------------------------------|--------------------------------------------------|
-------23--21------------------------|--------------------------------------------------|
-------------------------------------|--------------------------------------------------|
-------------------------------------|--------------------------------------------------|
-------------------------------------|--------------------------------------------------|


                                                                            
--19-21-26-24-21-19-21-26-24-21-19-21-19-17-24--|-----24-21--29------------|
------------------------------------------------|--------------------------|
------------------------------------------------|--------------------------|
------------------------------------------------|--------------------------|
------------------------------------------------|--------------------------|
------------------------------------------------|--------------------------|


                                                                            
-----24--------------|---21------21----------------|-----------------------|
-----26--------------|-------24----------22--------|-----------------------|
---------------------|---------------23------------|-----------------------|
---------------------|-----------------------------|-------21--------------|
---------------------|-----------------------------|---24------------------|
---------------------|-----------------------------|-----------------------|


                                                                        
----------------------------------|---17----------16------17--16-17-16-|
----------------------------------|-----------17------17---------------|
---------------------16-----------|------------------------------------|
---19-----------------------------|------------------------------------|
------21-19-----------------------|------------------------------------|
------------21-19-17--------------|------------------------------------|


                                                                                
---14--16-----------------------------|-----------------9--12--14--19--21--24--|
-----------17--------------13--12-----|---------10--12-------------------------|
---------------18-17-16-14------------|-----11---------------------------------|
--------------------------------------|----------------------------------------|
--------------------------------------|----------------------------------------|
--------------------------------------|----------------------------------------|


                                                                              
-----21---24--------------|----21-24-26----21-24-26----21-24-26----21-24-26--|
----------26---24---------|--------------------------------------------------|
--------------------------|--------------------------------------------------|
--------------------------|-------------21----------21----------21-----------|
--------------------------|--------------------------------------------------|
--------------------------|--------------------------------------------------|


                                                 
------21-24-26----21-24-26-21-24-21-21--21--29--|
------------------------------------------------|
------------------------------------------------|
---21----------21-------------------------------|
------------------------------------------------|
------------------------------------------------|


                                                                                
---26-29-26-24--26--26--26-24-21-24-21-24-21-21--|---19--17------17------------|
-------------------------------------------------|-----------19----------------|
-------------------------------------------------|-----------------------------|
-------------------------------------------------|-----------------------------|
-------------------------------------------------|-----------------------------|
-------------------------------------------------|-----------------------------|


                                                                                     
------------------|-----------------12--|-----------------10--|-----------------15--|
------------------|-----------------12--|-----------------10--|-----------------15--|
------------------|---------------------|---------------------|-----------------12--|
------------------|-----------------14--|-----------------12--|---------------------|
------------------|---------------------|---------------------|---------------------|
------------------|---------------------|---------------------|---------------------|


                                                                       
---------------------|----------------------12--|-----------------10--|
---------------------|----------------------12--|-----------------10--|
-----------------14--|-----------12-----14------|---------------------|
-----------------14--|-----------12-----14--14--|-----------------12--|
-----------------12--|-----------10-----12------|---------------------|
---------------------|--------------------------|---------------------|


                                                                       
-----------------15--|---------------------|----------------------12--|
-----------------15--|---------------------|----------------------12--|
-----------------12--|-----------------14--|-----------12-----14------|
---------------------|-----------------14--|-----------12-----14--14--|
---------------------|-----------------12--|-----------10-----12------|
---------------------|---------------------|--------------------------|


                                                                  
-----------------10--|-----------------15--|---------------------|
-----------------10--|-----------------15--|---------------------|
---------------------|-----------------12--|-----------------14--|
-----------------12--|---------------------|-----------------14--|
---------------------|---------------------|-----------------12--|
---------------------|---------------------|---------------------|


                                                                       
----------------------12--|-----------------10--|-----------------15--|
----------------------12--|-----------------10--|-----------------15--|
-----------12-----14------|---------------------|-----------------12--|
-----------12-----14--14--|-----------------12--|---------------------|
-----------10-----12------|---------------------|---------------------|
--------------------------|---------------------|---------------------|


                                                                       
---------------------|----------------------12--|-----------------15--|
---------------------|----------------------12--|-----------------15--|
-----------------14--|-----------12-----14------|---------------------|
-----------------14--|-----------12-----14--14--|-----------------17--|
-----------------12--|-----------10-----12------|---------------------|
---------------------|--------------------------|---------------------|


                                                                      
---------------------|---------------------|---------------------12--|
-----------------15--|---------------------|---------------------12--|
-----------------14--|-----------------14--|-----------12--12--------|
---------------------|-----------------14--|-----------12--12----14--|
-----------------17--|-----------------12--|-----------10--10--------|
---------------------|---------------------|-------------------------|


                                                                  
-----------------15--|---------------------|---------------------|
-----------------15--|-----------------15--|---------------------|
---------------------|-----------------14--|-----------------14--|
-----------------17--|---------------------|-----------------14--|
---------------------|-----------------17--|-----------------12--|
---------------------|---------------------|---------------------|


                                                           
---------------------12--|-----12--10------10---------12--|
-------------------------|-------------12---------12------|
-----------12--12--------|--------------------------------|
-----------12--12--------|--------------------------------|
-----------10--10--------|--------------------------------|
-------------------------|--------------------------------|


                                                                  
-----12--10------10---------12--|-----12--10------10---------12--|
-------------12---------12------|-------------12---------12------|
--------------------------------|--------------------------------|
--------------------------------|--------------------------------|
--------------------------------|--------------------------------|
--------------------------------|--------------------------------|


                                                                   
-----12--10------10--15--14--12--|-----12--10------10---------12--|
-------------12------------------|-------------12---------12------|
---------------------------------|--------------------------------|
---------------------------------|--------------------------------|
---------------------------------|--------------------------------|
---------------------------------|--------------------------------|


                                                                  
-----12--10------10---------12--|-----12--10------10---------12--|
-------------12---------12------|-------------12---------12------|
--------------------------------|--------------------------------|
--------------------------------|--------------------------------|
--------------------------------|--------------------------------|
--------------------------------|--------------------------------|


                                                        
-----12--10------10--15--14--12--|--------------------||
-------------12--------------12--|--------------------||
---------------------------------|--------------------||
-----------------------------14--|--------------------||
---------------------------------|--------------------||
---------------------------------|--------------------||
Tap to rate this tab
# A B C D E F G H I J K L M N O P Q R S T U V W X Y Z