Song name
# A B C D E F G H I J K L M N O P Q R S T U V W X Y Z

Iron Maiden - To Tame A Land tab

Band:  Iron Maiden
Album: Piece of Mind
Song:  To Tame a Land

Copyright (c)  (EMI) (1983)
Version 1.0 - (24/03/06)

Transcribed By: Steve
Email:          stephen.elvidge1@ntlworld.com


.  - palm mute           /  - slide up to
\  - slide down to       ~  - vibrato
h  - hammer on           b  - Bend
p  - pull off            Suffixes for bend
t  - tap                 f  - full bend    h - half bend
ph - pinched harmonic    q  - quarter bend t - tap bend
*  - see comment         ^  - Hold bend    r release bend
x  - Stuccatto           ~  - vibrato bend
,  - slight palm mute    () - ghost note, sustained note
"  - tremolo note        <> - Trill

Tunning E A D G B E
 
 Intro

  Guitar 1
E[-------------------------------------------------------------------|
B[-7-------7-8p7---7-------7-8p7---7-8-10/12-10-8\7-8-7-8-7-8-7------|
G[---------------9---------------9-------------------------------9---|
D[-------------------------------------------------------------------|
A[-------------------------------------------------------------------|
E[-------------------------------------------------------------------|
 [Guitar 2(clean) Let chords ring out.
E[-----2-------------------------------------------------------------|
B[----3--------------------------------------------------------------|
G[---4-----------------------------------------------------------2---|
D[--4------------------------------------------------------------2---|
A[-2-------------------------------------------------------------0---|
E[-------------------------------------------------------------------|

  Guitar 1
E[-------------------------------------------------------------------|
B[-------------------------------------------------------------------|
G[-7------7-9p7\6-7------7-9p7\6-7-9/11-/12-11\9\7/9-11/12-11\9\7----|
D[----------------------------------------------------------------9--|
A[-------------------------------------------------------------------|
E[-------------------------------------------------------------------|
 [Guitar 2(clean)
E[---7---------------------------------------------------------------|
B[--8----------------------------------------------------------------|
G[-7--------------------------------------------------------------2--|
D[----------------------------------------------------------------2--|
A[----------------------------------------------------------------0--|
E[-------------------------------------------------------------------|

  Guitar 1
E[-------------------------------------------------------------------|
B[-7-------7-8p7---7-------7-8p7---7-8-10/12-10-8\7-8-7-8-7-8-7------|
G[---------------9---------------9-------------------------------9---|
D[-------------------------------------------------------------------|
A[-------------------------------------------------------------------|
E[-------------------------------------------------------------------|
 [Guitar 2(clean)
E[-----2-------------------------------------------------------------|
B[----3--------------------------------------------------------------|
G[---4-----------------------------------------------------------2---|
D[--4------------------------------------------------------------2---|
A[-2-------------------------------------------------------------0---|
E[-------------------------------------------------------------------|

  Guitar 1
E[-------------------------------------------------------------------|
B[-------------------------------------------------------------------|
G[-8-----10p8\7-8---8-10p8\7-8-10/12-13-12-10\8-10/12-13-12-10-8--9--|
D[-------------------------------------------------------------------|
A[-------------------------------------------------------------------|
E[-------------------------------------------------------------------|
 [Guitar 2
E[------4------------------------------------------------------------|
B[-----4-------------------------------------------------------------|
G[----4-----------------------------------------------------------2--|
D[---6------------------------------------------------------------2--|
A[--6-------------------------------------------------------------0--|
E[-4-----------------------------------------------------------------|

  Guitar 1
E[-------------------------------------------------------------------|
B[-7-------7-8p7---7-------7-8p7---7-8-10/12-10-8\7-8-7-8-7-8-7------|
G[---------------9---------------9-------------------------------9---|
D[-------------------------------------------------------------------|
A[-------------------------------------------------------------------|
E[-------------------------------------------------------------------|
 [Guitar 2(clean)
E[-----2-------------------------------------------------------------|
B[----3--------------------------------------------------------------|
G[---4-----------------------------------------------------------2---|
D[--4------------------------------------------------------------2---|
A[-2-------------------------------------------------------------0---|
E[-------------------------------------------------------------------|

  Guitar 1
E[-------------------------------------------------------------------|
B[-------------------------------------------------------------------|
G[-7------7-9p7\6-7------7-9p7\6-7-9/11-/12-11\9\7/9-11/12-11\9\7----|
D[----------------------------------------------------------------9--|
A[-------------------------------------------------------------------|
E[-------------------------------------------------------------------|
 [Guitar 2(clean)
E[---7---------------------------------------------------------------|
B[--8----------------------------------------------------------------|
G[-7--------------------------------------------------------------2--|
D[----------------------------------------------------------------2--|
A[----------------------------------------------------------------0--|
E[-------------------------------------------------------------------|

  Guitar 1
E[-------------------------------------------------------------------|
B[-------------------------------------------------------------------|
G[-8-----10p8\7-8---8-10p8\7-8-10/12-13-12-10\8-10/12-13-12-10-8--9--|
D[-------------------------------------------------------------------|
A[-------------------------------------------------------------------|
E[-------------------------------------------------------------------|
 [Guitar 2
E[------4------------------------------------------------------------|
B[-----4-------------------------------------------------------------|
G[----4-----------------------------------------------------------2--|
D[---6------------------------------------------------------------2--|
A[--6-------------------------------------------------------------0--|
E[-4-----------------------------------------------------------------|


 Main Riff

  [--PM--]        [--PM--]        [--PM--]     [--PM--]
E---------------------------------------------------------------|
B---------------------------------------------------------------|
G---------------------------------------------------------------|
D---------3-2p0-2---------3-2p0-2---------5--5\---------2--0-2--|
A-2-2-2-2-3-2p0-2-2-2-2-2-3-2p0-2-5-5-5-5-5--5\-2-2-2-2-2--0-2--|
E-0-0-0-0---------0-0-0-0---------3-3-3-3-------0-0-0-0---------|

  [--PM--]        [--PM--]        [--PM--]     [--PM--]
E---------------------------------------------------------------|
B---------------------------------------------------------------|
G---------------------------------------------------------------|
D---------3-2p0-2---------3-2p0-2---------6--6\---------3--3-3--|
A-2-2-2-2-3-2p0-2-2-2-2-2-3-2p0-2-6-6-6-6-6--6\-3-3-3-3-3--3-3--|
E-0-0-0-0---------0-0-0-0---------4-4-4-4-------1-1-1-1---------|

 Rpt Above Riffs

 Verse

  [--PM--]    [--PM--]      [--PM--]     [--PM--]
E-------------------------------------------------------|
B-------------------------------------------------------|
G-----------------------------------5--5\--------2--2---|
D---------2--2---------2--2-5-5-5-5-5--5\2-2-2-2-2--2---|
A-2-2-2-2-2--2-2-2-2-2-2--2-3-3-3-3------0-0-0-0--------|
E-0-0-0-0------0-0-0-0----------------------------------|


  [--PM--]    [--PM--]      [--PM--]     [--PM--]
E-------------------------------------------------------|
B-------------------------------------------------------|
G-----------------------------------7--7\--------4--4---|
D---------2--2---------2--2-7-7-7-7-7--7\4-4-4-4-4--4---|
A-2-2-2-2-2--2-2-2-2-2-2--2-5-5-5-5-5--5\2-2-2-2-2--2---|
E-0-0-0-0------0-0-0-0----------------------------------|

  [--PM--]    [--PM--]      [--PM--]     [--PM--]
E-------------------------------------------------------|
B-------------------------------------------------------|
G-----------------------------------5--5\--------2--2---|
D---------2--2---------2--2-5-5-5-5-5--5\2-2-2-2-2--2---|
A-2-2-2-2-2--2-2-2-2-2-2--2-3-3-3-3------0-0-0-0--------|
E-0-0-0-0------0-0-0-0----------------------------------|


  [--PM--]    [--PM--]      [--PM--]     [--PM--]
E---------------------------------------------------------|
B---------------------------------------------------------|
G-----------------------------------7--7\--------4-4-4-4--|
D---------2--2---------2--2-7-7-7-7-7--7\4-4-4-4-4-4-4-4--|
A-2-2-2-2-2--2-2-2-2-2-2--2-5-5-5-5-5--5\2-2-2-2-2-2-2-2--|
E-0-0-0-0------0-0-0-0------------------------------------|

 Rpt Main Riff with lead line

                                                   h     h      
E--------------------------------------------------------------------|
B---121212/13-12-10-12---121212/13-12-10-12--------------------------|
G-9--------------------9--------------------12--12-14p12-14p12\9--8--|
D--------------------------------------------------------------------|
A--------------------------------------------------------------------|
E--------------------------------------------------------------------|

                                                   h     h      
E----------------------------------------------------------------------|
B---121212/13-12-10-12---121212/13-12-10-12----------------------------|
G-9--------------------9--------------------13--13-15p13-15p13\10--10\-|
D----------------------------------------------------------------------|
A----------------------------------------------------------------------|
E----------------------------------------------------------------------|

 Rpt

 Rpt Verse

 
 Rpt verse Riff with this lead line

  E
E----------------------------------------|
B----------------------------------------|
G-----------9-10-9---------------9----9--|
D-9-99-9-10--------12--9-99-9-10---12----|
A----------------------------------------|
E----------------------------------------|
  C                    A
E----------------------------------------|
B----------------------------------------|
G-----------9-10-9---------------9----9--|
D-9-99-9-10--------12--9-99-9-10---12----|
A----------------------------------------|
E----------------------------------------|

  E
E----------------------------------------|
B----------------------------------------|
G-----------9-10-9---------------9----9--|
D-9-99-9-10--------12--9-99-9-10---12----|
A----------------------------------------|
E----------------------------------------|
  D                    B
E----------------------------------------|
B----------------------------------------|
G-----------9-10-9---------------9----9--|
D-9-99-9-10--------12--9-99-9-10---12----|
A----------------------------------------|
E----------------------------------------|

 Rpt above

  D
E--------------------------------------|
B--------------------------------------|
G----------7-8-7--------------7----7---|
D-7-77-7-8-------10-7-77-7-8----10-----|
A--------------------------------------|
E--------------------------------------|
  A#                G
E--------------------------------------|
B--------------------------------------|
G----------7-8-7--------------7----7---|
D-7-77-7-8-------10-7-77-7-8----10-----|
A--------------------------------------|
E--------------------------------------|
 
 Rpt above


E-------------------------------------------------------------------|
B-------------------------------------------------------------------|
G-7--------------------------(7)------------------------------------|
D-7--------------------------(7)------------------------------------|
A-5--------------------------(5)------------------------------------|
E-------------------------------------------------------------------|

E-------------------------------------------------------------------|
B-------------------------------------------------------------------|
G-7--------------------------(7)------------------------------------|
D-7--------------------------(7)------------------------------------|
A-5--------------------------(5)------------------------------------|
E-------------------------------------------------------------------|

E-------------------------------------------------------------------|
B-------------------------------------------------------------------|
G-2--------------------------(2)------------------------------------|
D-2--------------------------(2)------------------------------------|
A-0--------------------------(0)------------------------------------|
E-------------------------------------------------------------------|

E-------------------------------------------------------------------|
B-------------------------------------------------------------------|
G-2--------------------------(2)------------------------------------|
D-2--------------------------(2)------------------------------------|
A-0--------------------------(0)------------------------------------|
E-------------------------------------------------------------------|

 Rpt above crashes

    [PM]  [PM]  PM  [PM] [PM]  PM  [PM]  [PM]  PM
E-------------------------------------------------------------|
B-3-----3-----3---5-----5-----5---6-----6-----6---5-5-5/6\5\2-|
G-2-----2-----2---4-----4-----4---5-----5-----5---4-4-4/5\4\2-|
D-0-0-0---0-0---0---0-0---0-0---0---0-0---0-0---0-------------|
A-------------------------------------------------------------|
E-------------------------------------------------------------| Rpt
    [PM]  [PM]  PM  [PM] [PM]  PM  [PM]  [PM]  PM
E-------------------------------------------------------------|
B-------------------------------------------------------------|
G-2-----2-----2---4-----4-----4---5-----5-----5---4-4-4/5\4-2-|
D-2-----2-----2---4-----4-----4---5-----5-----5---4-4-4/5\4-2-|
A-0-0-0---0-0---0---0-0---0-0---0---0-0---0-0---0-------------|
E-------------------------------------------------------------| Rpt

E-----------------------|
B-3----(3)--------------|
G-2----(3)----3---------|
D-0----(0)----3--5-5-x--|
A-------------1--5-5-x--|
E----------------3-3----| Rpt 4 X

  Guitar 1
E[-------------------------------------------------------|
B[-------------------------------------------------------|
G[---4-5p4p2-4-----4-5p4p2-4-----4-5p4p2-4---4---2-------|
D[-2-----------5-2-----------5-2-----------5---5---5-4-0-|
A[-------------------------------------------------------|
E[-------------------------------------------------------|
 [Guitar 2
E[-------------------------------------------------------|
B[-------------------------------------------------------|
G[-----------------------------------------------9\7\6---|
D[-9-------------9-------------9-------------9---7\5\4-0-|
A[-7-------------7-------------7-------------7-----------|
E[-------------------------------------------------------| Rpt

  Guitar 1
E[-------------------------------------------------------|
B[-------------------------------------------------------|
G[---4-5p4p2-4-----4-5p4p2-4-----4-5p4p2-4---------------|
D[-------------5-------------5-------------5---------5-4-|
A[-------------------------------------------2-4-5-2-----|
E[-------------------------------------------------------|
 [Guitar 2
E[-------------------------------------------------------|
B[-------------------------------------------------------|
G[---------------------------------------------------7\5-|
D[-4-------------4-------------4-------------4/6/7---5\4-|
A[-2-------------2-------------2-------------2/4/5-2-----|
E[-------------------------------------------------------| Rpt

  Guitar 1
E[-------------------------------------------------------|
B[-------------------------------------------------------|
G[---4-5p4p2-4-----4-5p4p2-4-----4-5p4p2-4---4---2-------|
D[-2-----------5-2-----------5-2-----------5---5---5-4-0-|
A[-------------------------------------------------------|
E[-------------------------------------------------------|
 [Guitar 2
E[-------------------------------------------------------|
B[-------------------------------------------------------|
G[-----------------------------------------------9\7\6---|
D[-9--9-9-9-9----9--9-9-9-9----9--9-9-9-9----9---7\5\4-0-|
A[-7--7-7-7-7----7--7-7-7-7----7--7-7-7-7----7-----------|
E[-------------------------------------------------------| Rpt

  Guitar 1
E[-------------------------------------------------------|
B[-------------------------------------------------------|
G[---4-5p4p2-4-----4-5p4p2-4-----4-5p4p2-4---------------|
D[-------------5-------------5-------------5---------5-4-|
A[-------------------------------------------2-4-5-2-----|
E[-------------------------------------------------------|
 [Guitar 2
E[-------------------------------------------------------|
B[-------------------------------------------------------|
G[---------------------------------------------------7\5-|
D[-4--4-4-4-4----4--4-4-4-4----4--4-4-4-4----4/6/7---5\4-|
A[-2--2-2-2-2----2--2-2-2-2----2--2-2-2-2----2/4/5-2-----|
E[-------------------------------------------------------| 

  Guitar 1
E[-------------------------------------------------------|
B[-------------------------------------------------------|
G[---4-5p4p2-4-----4-5p4p2-4-----4-5p4p2-4---------------|
D[-------------5-------------5-------------5-------2-4-5-|
A[-------------------------------------------2-4-5-------|
E[-------------------------------------------------------|
 [Guitar 2
E[-------------------------------------------------------|
B[-------------------------------------------------------|
G[-------------------------------------------------------|
D[-4--4-4-4-4----4--4-4-4-4----4--4-4-4-4----------2-4-5-|
A[-2--2-2-2-2----2--2-2-2-2----2--2-2-2-2----2-4-5-------|
E[-------------------------------------------------------| 

 Guitar chugs on palm muted powerchords.
  E

E--------------------------------------------|
B--------------------------------------------|
G-4---4-5p4/2-4---4-5p4/2-4---4-5p4/2-4--4\--|
D--------------------------------------------|
A--------------------------------------------|
E--------------------------------------------|

  D

E--------------------------------------------|
B--------------------------------------------|
G-2---2-4p2p0-2---2-4p2p0-2---2-4p2p0-2------|
D--------------------------------------------|
A--------------------------------------------|
E--------------------------------------------|

  E
                                h           h           h
E-------------------------------------------------------------------|
B-------------------------------------------------------------------|
G-4---4-5p4/2-4---4-5p4/2-4-5-4-5p4---4-5-4-5p4---4-5-4-5p4---4-5-4-|
D-----------------------------------7-----------7-----------7-------|
A-------------------------------------------------------------------|
E-------------------------------------------------------------------|

  D
                                h           h           h
E-------------------------------------------------------------------|
B-------------------------------------------------------------------|
G-2---2-4p2p0-2---2-4p2p0-2-4-2-4p2p0-2-4-2-4p2p0-2-4-2-4p2p0-2-4-2-|
D-------------------------------------------------------------------|
A-------------------------------------------------------------------|
E-------------------------------------------------------------------|


  Guitar solo 1
 
  E
   ~~~~~     ~~~~~h                           ~~~~          ~~~~   
E-----------------12-15p12----12-12--------------------------------|
B-15b--r-12-15b------------15-------15p12-15p12-12--10-----10---\--|
G-------------------------------------------------------12---------|
D------------------------------------------------------------------|
A------------------------------------------------------------------|
E------------------------------------------------------------------|

  D

E---------------12-15-12----12-----------------------------------|
B---------12-15----------15----15p12-15p12-15p12----12-----------|
G-9-7-9p7----------------------------------------14b---14-12-12--|
D----------------------------------------------------------------|
A----------------------------------------------------------------|
E----------------------------------------------------------------|
             ~~~~
E---------------------|
B-15---15-------------|
G-14b--14b--14--\-/---|
D---------------------|
A---------------------|
E---------------------|

  E
    h   h   h   h     h   h   h   h     h   h   h   h
E--------------------------------------------------------|
B--------------------------------------------------------|
G-4-5p4-5p4-5p4-5p4/5-7p5-7p5-7p5-7p5/7-9p7-9p7-9p7-9p7/-|
D--------------------------------------------------------|
A--------------------------------------------------------|
E--------------------------------------------------------|

  E
    h     h                      ~~~~~~~    ~~~
E---------------------------------------14-15-\--|
B----------------------10-12-13-15b-15b----------|
G-9-11p9-11p9-11-11-12---------------------------|
D------------------------------------------------|
A------------------------------------------------|
E------------------------------------------------|
  D
     h     h      h    h     h      ~~~~
E-14-15p14-15p14-15p14-15p14-15p14-17b---\--|
B-------------------------------------------|
G-------------------------------------------|
D-------------------------------------------|
A-------------------------------------------|
E-------------------------------------------|

         h           h           h     h     h         h       
E-----11-12p11----11-12p11----11-12p11-12p11-12p11\8-8-10p8-|
B-/13----------13----------13-------------------------------|
G-----------------------------------------------------------|
D-----------------------------------------------------------|
A-----------------------------------------------------------|
E-----------------------------------------------------------|
  h    h
E-10p8-10p8\7--|
B--------------|
G--------------|
D--------------|
A--------------|
E--------------|

 Guitar solo 2

  E

  h     h     h     h     h     h     h     h
E--------------------------------------------------|
B-7p5p0-8p5p0-7p5p0-8p5p0-7p5p0-8p5p0-7p5p0-8p5p0--|
G--------------------------------------------------|
D--------------------------------------------------|
A--------------------------------------------------|
E--------------------------------------------------|
  h        h     h     h     h     h     h 
E--------------------------------------------|
B-12p10p0-10p8p0-8p7p0-7p5p0-5p3p0-----------|
G----------------------------------4p2p0-----|
D----------------------------------------2---|
A--------------------------------------------|
E--------------------------------------------|
 
  D
  t     t    t    t    t   t    t    t    t    t    t    t
E---------------------------------------------------------------|
B---------------------------------------------------------------|
G---------------------------------------------------------------|
D-12p4-12p4-12p4-12p4-12p5-12p5-12p5-12p5-12p7-12p7-12p7-12p7---|
A---------------------------------------------------------------|
E---------------------------------------------------------------|
  t     t    t    t   t     t    t    t                h   h
E---------------------------------------------------------------|
B---------------------------------------------------------------|
G---------------------------------------------------------------|
D-12p8-12p8-12p8-12p8-12p7-12p7-12p7-12p7\5--4-5-4--------------|
A--------------------------------------------------6-5-6p5-6p5--|
E---------------------------------------------------------------|

  E                                   D
  ~~~~~~~~~~~~~~~~~~~           ~~~~   ~~               
E------------------------------12--------12-15p12-15p12---------|
B-5-5--7-7-8--10-12--13-13-15--15br---15b---------------15b-----|
G-7b7b-9b9b10b12b14--15b15b17b-----14---------------------------|
D---------------------------------------------------------------|
A---------------------------------------------------------------|
E---------------------------------------------------------------|

E-12-15p12----12-15p12----12-15p12----12-15p12----12-15p12------|
B----------15b---------15b---------15b---------15b---------15b--|
G---------------------------------------------------------------|
D---------------------------------------------------------------|
A---------------------------------------------------------------|
E---------------------------------------------------------------|
                  ~~~~~
E-12-14-15-17-19-20b---|
B----------------------|
G----------------------|
D----------------------|
A----------------------|
E----------------------|

 Harmonised section

  E
  Guitar 1
    ~~                      ~~~
E[--------------------------------------------------|
B[----15-17-15-13-15-----------15-17-15-13-15-------|
G[-12----------------12\11-12-----------------12\11-|
D[--------------------------------------------------|
A[--------------------------------------------------|
E[--------------------------------------------------|
 [Guitar 2
 [  ~~                      ~~~
E[--------------------------------------------------|
B[----12-13-12\10-12-----------12-13-12\10-12-------|
G[-9--------------------7--9---------------------7--|
D[-------------------9------------------------9-----|
A[--------------------------------------------------|
E[--------------------------------------------------|

  D
  Guitar 1
     ~~                      ~~~
E[---------------------------------------------------|
B[-----13-15-13\11-13----------13-15-13\11-13--------|
G[-10-----------------10\9/10-----------------10\9---|
D[---------------------------------------------------|
A[---------------------------------------------------|
E[---------------------------------------------------|
 [Guitar 2
 [   ~~                      ~~~
E[---------------------------------------------------|
B[-----10-11-10-8--10----------10-11-10-8--10--------|
G[-7---------------------5-7---------------------5---|
D[--------------------7-----------------------7------|
A[---------------------------------------------------|
E[---------------------------------------------------|

  F#
  Guitar 1
    ~~                      ~~~
E[---------------------------------------------------|
B[-----17-19-17-15-17-----------17-19-17-15-17-------|
G[-14-----------------14\13/14-----------------14\13-|
D[---------------------------------------------------|
A[---------------------------------------------------|
E[---------------------------------------------------|
 [Guitar 2
 [  ~~                      ~~~
E[---------------------------------------------------|
B[-----14-15-14-12-14-----------14-15-14-12-14-------|
G[-11--------------------9-/11--------------------9--|
D[--------------------11-----------------------11----|
A[---------------------------------------------------|
E[---------------------------------------------------|
  
  E
  Guitar 1
    ~~                      ~~~
E[--------------------------------------------------|
B[----15-17-15-13-15-----------15-17-15-13-15-------|
G[-12----------------12\11-12-----------------12\11-|
D[--------------------------------------------------|
A[--------------------------------------------------|
E[--------------------------------------------------|
 [Guitar 2
 [  ~~                      ~~~
E[--------------------------------------------------|
B[----12-13-12\10-12-----------12-13-12\10-12-------|
G[-9--------------------7--9---------------------7--|
D[-------------------9------------------------9-----|
A[--------------------------------------------------|
E[--------------------------------------------------|

  D
  Guitar 1
     ~~                      ~~~
E[---------------------------------------------------|
B[-----13-15-13\11-13----------13-15-13\11-13--------|
G[-10-----------------10\9/10-----------------10\9---|
D[---------------------------------------------------|
A[---------------------------------------------------|
E[---------------------------------------------------|
 [Guitar 2
 [   ~~                      ~~~
E[---------------------------------------------------|
B[-----10-11-10-8--10----------10-11-10-8--10--------|
G[-7---------------------5-7---------------------5---|
D[--------------------7-----------------------7------|
A[---------------------------------------------------|
E[---------------------------------------------------|
 [Guitar 3                  ~~~~~~                   
E[-------------------13-12-13------------------------|
B[---------------------------------------------------|
G[---------------------------------------------------|
D[---------------------------------------------------|
A[---------------------------------------------------|
E[---------------------------------------------------|

  F#
  Guitar 1
    ~~                      ~~~
E[---------------------------------------------------|
B[-----17-19-17-15-17-----------17-19-17-15-17-------|
G[-14-----------------14\13/14-----------------14\13-|
D[---------------------------------------------------|
A[---------------------------------------------------|
E[---------------------------------------------------|
 [Guitar 2
 [  ~~                      ~~~
E[---------------------------------------------------|
B[-----14-15-14-12-14-----------14-15-14-12-14-------|
G[-11--------------------9-/11--------------------9--|
D[--------------------11-----------------------11----|
A[---------------------------------------------------|
E[---------------------------------------------------|
 [Guitar 3                   ~~~~~
E[--------------------17-16-17-----------------------|
B[---------------------------------------------------|
G[---------------------------------------------------|
D[---------------------------------------------------|
A[---------------------------------------------------|
E[---------------------------------------------------|

  E
  Guitar 1
    ~~                      ~~~
E[--------------------------------------------------|
B[----15-17-15-13-15-----------15-17-15-13-15-------|
G[-12----------------12\11-12-----------------12\11-|
D[--------------------------------------------------|
A[--------------------------------------------------|
E[--------------------------------------------------|
 [Guitar 2
 [  ~~                      ~~~
E[--------------------------------------------------|
B[----12-13-12\10-12-----------12-13-12\10-12-------|
G[-9--------------------7--9---------------------7--|
D[-------------------9------------------------9-----|
A[--------------------------------------------------|
E[--------------------------------------------------| 

 Rpt above harmony sections corrisponding key of crashes.

 Crashes are E, D, F#, D#, E.

  D# harmonised section
  Guitar 1
    ~~                      ~~~
E[--------------------------------------------------|
B[----14-16-14-12-14-----------14-16-14-12-14-------|
G[-11----------------11\10-11-----------------11\10-|
D[--------------------------------------------------|
A[--------------------------------------------------|
E[--------------------------------------------------|
 [Guitar 2
 [  ~~                      ~~~
E[--------------------------------------------------|
B[----11-12-11\9--11-----------11-12-11\9--11-------|
G[-8--------------------6--8---------------------6--|
D[-------------------8------------------------8-----|
A[--------------------------------------------------|
E[--------------------------------------------------| 


 Rpt first half of intro.

 Ending

  Guitar 1
   ~~~~~~~~~~~~~~~~~~~~~~~~~~~~~~~~~~~~~~~~~~~~~~~~~~~~~~~~~
E[-------------------------------------------------------------------|
B[-7-----------------------(7)---------------------------------------|
G[-------------------------------------------------------------------|
D[-------------------------------------------------------------------|
A[-------------------------------------------------------------------|
E[-------------------------------------------------------------------|
 [Guitar 2(clean)
E[-----2--------------------(2)--------------------------------------|
B[----3---------------------(3)--------------------------------------|
G[---4----------------------(4)--------------------------------------|
D[--4-----------------------(4)--------------------------------------|
A[-2------------------------(2)--------------------------------------|
E[-------------------------------------------------------------------|




END

Tap to rate this tab
# A B C D E F G H I J K L M N O P Q R S T U V W X Y Z