Song name
# A B C D E F G H I J K L M N O P Q R S T U V W X Y Z

Iron Maiden - Die With Your Boots On tab

Help us improve GuitareTab! Take a short survey!
Iron Maiden
Die With Your Boots On
Piece of Mind

Intro




Guitar 1


|---------------------------------------------------------------------------|
|--------------------8------------------------------------------------------|
|-9~-7-9-7-9--9~-7-9---9----------------------------------------------------|
|----------------------------X8---------------------------------------------|
|---------------------------------------------------------------------------|
|---------------------------------------------------------------------------|


Guitar 2


|---------------------------------------------------------------------------|
|---------------------------------------------------------------------------|
|---------------------------------------------------------------------------|
|-----------------------5----X8---------------------------------------------|
|---7~-5-7-5-7--7~--5-7---7-------------------------------------------------|
|---------------------------------------------------------------------------|


Verse   (..another prophet of disaster...)


|---------------------------------------------------------------------------|
|---------------------------------------------------------------------------|
|---------------------------------------------------------------------------|
|-------------5-------------------------------------------------------------|
|-2-----5-----3----5--------------------------------------------------------|
|-0-----3----------3--------------------------------------------------------|


let ring all


verse (no point asking....)


|---------------------------------------------------------------------------|
|---------------------------------------------------------------------------|
|---------------------------------------------------------------------------|
|--2--3---333---------5-5------------2-3---333------------------------------|
|--0--1---111--3-333--3-3--3-2-0-----0-1---111--3-333--3/5-xx-3/5-----------|
|--------------1-111-------------3--------------1-111--1/3-xx-1/3-----------|


Pre chorus (Cos if your gonna die...)


|---------------------------------------------------------------------------|
|---------------------------------------------------------------------------|
|---------------------------------------------------------------------------|
|--3-3-3-3--2h3333-x-2h3333---5-55-3/5-55--7-7-7-7-7------------------------|
|--1-1-1-1--0h1111-x-0h1111---3-33-1/3-33--5-5-5-5-5------------------------|
|---------------------------------------------------------------------------|


Chorus


|---------------------------------------------------------------------------|
|---------------------------------------------------------------------------|
|---4-----------------------------------------------------------------------|
|---2-4---7--------5----5-7----------X4-------------------------------------|
|-----2---5-7------3-5--3-5-------------------------------------------------|
|-----------5--------3--------5-3-0-----------------------------------------|



For solo use an A B C D (la si do re) chord progresion


Post solo stuff


Guitar 1


|---------------------------------------------------------------------------|
|---------------------------------------------------------------------------|
|---------------------------------------------------------------------------|
|---------------------------------------------------------------------------|
|---5b7~-3------------3-----5b7~-3-------------3----5b7~-3-----------3------|
|----------5~-3-5~--5---5----------5~-3~-5~--5---5---------5~-3-5~-5---6-5~-|


Guitar 2


|---------------------------------------------------------------------------|
|--10-8-----------------10-8----------------10-8----------------------------|
|-------9~--7-9~-9-10-9------9~-7-9~-9-10-9------9~-7-9--9--12-10-9~--------|
|---------------------------------------------------------------------------|
|---------------------------------------------------------------------------|
|---------------------------------------------------------------------------|
Related for Die With Your Boots On tab