Song name
# A B C D E F G H I J K L M N O P Q R S T U V W X Y Z

Iron Maiden - Fates Warning tab

ENDEMICBASS666 is the writer of this tab but it was not on this site

Sorry everybody, this is a bass tab

IRON MAIDEN
FATES WARNING
BASSTAB
TABBED BY ENDEMICBASS666



slow guitar intro

then


riff 1 :

G--9--------5--------7/--|--7--------9------------|
D--9--------5------------|--7--------9--------5/--|
A--7-7-7-7--3-3-3-3------|--5-5-5-5--7-7-7-7------|  x3
E------------------------|------------------------|

G--9----5----7/------------------------------999999/--|
D--9----5---------------------------------------------|
A--7----3---------7-7-7--5-5-5--7-7-7--5-5-5----------|
E-----------------------------------------------------|



verse:

G---9--------------------5--------------------2----|
D---9--------------------5--------------------2----|
A---7-77777777777777-----3-333333333333333----0----|
E--------------------------------------------------|

G---9--------------------7--------------------5-----|
D---9--------------------7--------------------5-----|
A---7-77777777777777-----5-5555555555555555---3-----|
E---------------------------------------------------|

G-|-------------------------------------------------|
D-|--5----------5------------7----------------------|
A-|--5----------5------------7----------------------|
E-|--3-3-3-3-3--3-3-3-3-3----5--5-5-5-5-5-5-5-5-----|




chours :

G--9--------5----------7--------9------------|
D--9--------5----------7--------9--------5/--|
A--7-7-7-7--3-3-3-3----5-5-5-5--7-7-7-7------|  x3
E--------------------------------------------|

G--9----5-------------------999-777-------------|
D--9----5---------------------------999-777-----|
A--7----3-----7-7-7--5-5-5-------------------7--|
E-----------------------------------------------|


repeat verse


repeat chorus


interlude (x2):


G-|--7-------------------2----------------|
D-|--7-------------------2----------------|
A-|--5-5-5-5-5-5-5-5-----0-0-0-0-0-0-0-0--|
E-|---------------------------------------|


G-|--------------------------------------2----------------|
D-|--3-----------------5-----------------2----------------|
A-|--3-----------------5-----------------0-0-0-0-0-0-0-0--|
E-|--1-1-1-1-1-1-1-1---3-3-3-3-3-3-3-3--------------------|



riff under guitar solo 1 :

G-|----------------------------|
D-|-----------------------7h9--|
A-|-------------------7h9------|  x 4
E-|--7-7-7-7-7-7--7h9----------|



repeat verse part under the following musical part


repeat interlude part under the guitar solo 2


repeat riff 1


repeat chorus


ending note :


G--9---|
D--9---|
A--7/--|
E------|


END.
Tap to rate this tab
# A B C D E F G H I J K L M N O P Q R S T U V W X Y Z