Song name
# A B C D E F G H I J K L M N O P Q R S T U V W X Y Z

Iron Maiden - The Educated Fool tab

----------------------------------------------------------------------------
Artist:Iron Maiden
Album: Virtual
Song:The Educated Fool
Tuning:Standerd (E,A,D,G,B,E)
----------------------------------------------------------------------------
Intro:

E|---------------------------------------|
B|---------------------------------------|
G|----4h5p4-------4h5p4h5p4h5p4/-7-5-4-2-| x2
D|---------------------------------------|
A|---------------------------------------|
E|-0-----------0-------------------------|

E|-0h2-3-5-3-2-3-|-0h2-3-5-3-2-3-3/7-5-3-5--|
B|---------------|--------------------------|
G|---------------|--------------------------|
D|---------------|--------------------------|
A|---------------|--------------------------|
E|---------------|--------------------------|

When the singing comes in just pluck the chords
Em,C,D,Em,C,G or something like that. you'll get them easily enough if you listen to it.
Then There is a riff like this,

E|-0-7-0-5-0-3-3-0-5-|
B|-------------------|
G|-------------------|
D|-------------------|
A|-------------------|
E|-------------------|

Then just strum the chords above. for a while, then play this again.

E|-0-7-0-5-0-3-3-0-5--|
B|--------------------|
G|--------------------| x8
D|--------------------|
A|--------------------|
E|--------------------|

Then Strum the chords again(Em,C,D,Em,C,G)
Then back into
E|-0-7-0-5-0-3-3-0-5--|
B|--------------------|
G|--------------------| x8
D|--------------------|
A|--------------------|
E|--------------------|

Then there is a big lead up to the solo but i didnt tab that cos i couldnt to be 
if any1 would like to E-Mail it to me)feel free at Caltra_14@yahoo.com... Thanks and PLEASE 
THIS!!And keep in mind when you are i'm only 14!
Tap to rate this tab
# A B C D E F G H I J K L M N O P Q R S T U V W X Y Z