Guitaretab - guitar tabs
Song name
# A B C D E F G H I J K L M N O P Q R S T U V W X Y Z

Iron Maiden - Paschendale tab

Words and Music by Steve Harris and Adrian Smith

PASCHENDALE
As Recorded By Iron Maiden
(From the 2003 Album "DANCE OF DEATH")

Gtr I   (E A D G B E) Adrian Smith "Intro"
Gtr II  (E A D G B E) Dave Murray
Gtr III (E A D G B E) Adrian Smith
Gtr IV  (E A D G B E) Janick Gers
Gtr V   (E A D G B E) Dave Murray "Solo"
Gtr VI  (E A D G B E) Adrian Smith "Solo"
Gtr VII (E A D G B E) Janick Gers "Solo"

Intro
Q=84
4/4
Gtr I
   S S  S  S S S  S S S  S S S  S S E    S S S  S S S  S S S  S S S  E E  3x
||-0h10t12p0h8t12p0h7t12p0h5t12p0h7t12-|p0h7t12p0h5t12p0h3t12p0h2t12p0t12-||
||o------------------------------------|---------------------------------o||
||-------------------------------------|----------------------------------||
||-------------------------------------|----------------------------------||
||o------------------------------------|---------------------------------o||
||-------------------------------------|----------------------------------||

  S S  S  S S S  S S S  S S S  S S E    S S S  S S S  S S S  S S S  Q
|-0h10t12p0h8t12p0h7t12p0h5t12p0h7t12-|p0h7t12p0h5t12p0h3t12p0h2t12p0-|
|-------------------------------------|-------------------------------|
|-------------------------------------|-------------------------------|
|-------------------------------------|-------------------------------|
|-------------------------------------|-------------------------------|
|-------------------------------------|-------------------------------|

Gtrs II,III+IV
        PM    PM    PM                  PM    PM    PM
  S S S S S S S S S S S S  Q     S  S S S S S S S S S S S  Q
|-----------------------------|-------------------------------|
|-----------------------------|-------------------------------|
|---9-9---7-7---5-5---4-4-(4)-|-(4)-5-5---4-4---2-2-----------|
|---9-9---7-7---5-5---4-4-(4)-|-(4)-5-5---4-4---2-2---2-2-(2)-|
|---7-7-0-5-5-0-3-3-0-2-2-(2)-|-(2)-3-3-0-2-2-0-0-0---2-2-(2)-|
|-----------------------------|---------------------0-0-0-(0)-|

        PM    PM    PM                  PM    PM    PM        3/4   4/4
  S S S S S S S S S S S S +Q    +S  S S S S S S S S S S S +Q    +H.   +W
|-----------------------------|-------------------------------|-----|-----||
|-----------------------------|-------------------------------|-----|-----||
|---9-9---7-7---5-5---4-4-(4)-|-(4)-5-5---7-7---7-7---9-9-(9)-|-(9)-|-(9)-||
|---9-9---7-7---5-5---4-4-(4)-|-(4)-5-5---7-7---7-7---9-9-(9)-|-(9)-|-(9)-||
|---7-7-0-5-5-0-3-3-0-2-2-(2)-|-(2)-3-3-0-5-5-0-5-5-0-7-7-(7)-|-(7)-|-(7)-||
|-----------------------------|-----------------------0-0-(0)-|-(0)-|-(0)-||

Gtr I
   S S  S  S S S  S S S  S S S  S S E    S S S  S S S  S S S  S S S  E E  2x
||-0h10t12p0h8t12p0h7t12p0h5t12p0h7t12-|p0h7t12p0h5t12p0h3t12p0h2t12p0t12-||
||o------------------------------------|---------------------------------o||
||-------------------------------------|----------------------------------||
||-------------------------------------|----------------------------------||
||o------------------------------------|---------------------------------o||
||-------------------------------------|----------------------------------||

  S S  S  S S S  S S S  S S S  S S E    S S S  S S S  S S S  S S S  Q
|-0h10t12p0h8t12p0h7t12p0h5t12p0h7t12-|p0h7t12p0h5t12p0h3t12p0h2t12p0-|
|-------------------------------------|-------------------------------|
|-------------------------------------|-------------------------------|
|-------------------------------------|-------------------------------|
|-------------------------------------|-------------------------------|
|-------------------------------------|-------------------------------|

Gtrs II+III
    PM      PM    PM      PM
   S S  S  S S S S S  S  S S  S  +S   S  S  S
|-----------------------------------------------|
|-----------------------------------------------|
|------------------14-14---12-12-(12)-12-11/12--|
|----10-10---9-9---14-14---12-12-(12)-12-11/12--|
|----x--x----x-x---12-12-0-10-10-(10)-10-9-/10--|
|--0-8--8--0-7-7-0------------------------------|

   PM      PM      PM     PM
   S S  S  S S  S  S S  S S S S +S  S S S
|-----------------------------------------|
|-----------------------------------------|
|----14-14---12-12---11-11--9-9-(9)-9-7/9-|
|----14-14---12-12---11-11--9-9-(9)-9-7/9-|
|----12-12---10-10---9--9---7-7-(7)-7-5/7-|
|--0-------0-------0------0---------------|

    PM      PM    PM      PM
   S S  S  S S S S S  S  S S  S  +S   S  S  S
|-----------------------------------------------|
|-----------------------------------------------|
|------------------14-14---12-12-(12)-12-11/12--|
|----10-10---9-9---14-14---12-12-(12)-12-11/12--|
|----x--x----x-x---12-12-0-10-10-(10)-10-9-/10--|
|--0-8--8--0-7-7-0------------------------------|

   PM      PM      PM     PM
   S S  S  S S  S  S S  S S S S +S  E.
|-------------------------------------||
|-------------------------------------||
|----14-14---12-12---11-11--9-9-(9)-9-||
|----14-14---12-12---11-11--9-9-(9)-9-||
|----12-12---10-10---9--9---7-7-(7)-7-||
|--0-------0-------0------0-----------||

Pre-Chorus
   S S S S E  S S S S E  Q    +S  S S S E  S S S S E  Q
||--------------------------|----------------------------|
||--------------------------|----------------------------|
||-7/9-9-9-9--7-7-7/9-9--9--|-(9)-9-9-9-9--5-5-5/7-7--7--|
||-7/9-9-9-9--7-7-7/9-9--9--|-(9)-9-9-9-9--5-5-5/7-7--7--|
||-5/7-7-7-7--5-5-5/7-7--7--|-(7)-7-7-7-7--3-3-3/5-5--5--|
||--------------------------|----------------------------|

  S S S S S S S S S S E  Q    +S  S  S  S  E  S S S S E  Q
|---------------------------|-------------------------------|
|---------------------------|-------------------------------|
|-7/9-9-9-9\7-7-7-7/9-9--9--|-(9)-12-12-12-12\-5-5-5/7-7--7-|
|-7/9-9-9-9\7-7-7-7/9-9--9--|-(9)-12-12-12-12\-5-5-5/7-7--7-|
|-5/7-7-7-7\5-5-5-5/7-7--7--|-(7)-10-10-10-10\-3-3-3/5-5--5-|
|---------------------------|-------------------------------|

  S S S S E  S S S S E  Q    +S  S S S E  S S S S E  Q
|--------------------------|----------------------------|
|--------------------------|----------------------------|
|-7/9-9-9-9--7-7-7/9-9--9--|-(9)-9-9-9-9--5-5-5/7-7--7--|
|-7/9-9-9-9--7-7-7/9-9--9--|-(9)-9-9-9-9--5-5-5/7-7--7--|
|-5/7-7-7-7--5-5-5/7-7--7--|-(7)-7-7-7-7--3-3-3/5-5--5--|
|--------------------------|----------------------------|

  S S S S S S S S S S E  Q    +S  S  S  S  E   S S S E  Q
|---------------------------|-----------------------------|
|---------------------------|-----------------------------|
|-7/9-9-9-9\7-7-7-7/9-9--9--|-(9)-12-12-12-12\------------|
|-7/9-9-9-9\7-7-7-7/9-9--9--|-(9)-12-12-12-12\-5-5/7-7--7-|
|-5/7-7-7-7\5-5-5-5/7-7--7--|-(7)-10-10-10-10\-5-5/5-5--5-|
|---------------------------|------------------3-3/5-5--5-|

   H +E  E. E.  H +E  E. E.  H +E  E. E.  H +E  E. E.
|-------------|------------|------------|------------||
|-------------|------------|------------|------------||
|--------0--0-|----------7-|-------0--0-|----------7-||
|--2-(2)-2--0-|-2-(2)-5--7-|-2-(2)-2--0-|-2-(2)-5--7-||
|--2-(2)-3--x-|-2-(2)-5--5-|-2-(2)-3--x-|-2-(2)-5--5-||
|--0-(0)----3-|-0-(0)-3----|-0-(0)----3-|-0-(0)-3----||

Verse
$
    PM      PM    PM      PM
     S S  S  S S S S S  S  S S  S  +S   S  S  S
||------------------------------------------------|
||o-----------------------------------------------|
||-------------------14-14---12-12-(12)-12-11/12--|
||-----10-10---9-9---14-14---12-12-(12)-12-11/12--|
||o----x--x----x-x---12-12-0-10-10-(10)-10-9-/10--|
||---0-8--8--0-7-7-0------------------------------|

   PM      PM      PM     PM
   S S  S  S S  S  S S  S S S S +S  S S S
|------------------------------------------||
|-----------------------------------------o||
|----14-14---12-12---11-11--9-9-(9)-9-7/9--||
|----14-14---12-12---11-11--9-9-(9)-9-7/9--||
|----12-12---10-10---9--9---7-7-(7)-7-5/7-o||
|--0-------0-------0------0----------------||

   PM      PM    PM    PM                PM    PM    PM    PM
   S S  S  S S S S S S S S S +S  S S S   S S S S S S S S S S S S +S  S S S
|--------------------------------------|-----------------------------------|
|--------------------------------------|-----------------------------------|
|--------------------------------------|-----------------------------9-7/9-|
|----10-10---9-9---7-7---5-5-(5)-5-4/5-|---7-7---5-5---4-4---2-2-(2)-9-7/9-|
|----10-10---9-9---7-7---5-5-(5)-5-4/5-|---7-7---5-5---4-4---2-2-(2)-7-5/9-|
|--0-8--8--0-7-7-0-5-5-0-3-3-(3)-3-2/3-|-0-5-5-0-3-3-0-2-2-0-0-0-(0)-------|

   PM      PM    PM    PM                PM    PM    PM    PM
   S S  S  S S S S S S S S S +S  S S S   S S S S S S S S S S S S S S S S
|--------------------------------------|---------------------------------||
|--------------------------------------|---------------------------------||
|--------------------------------------|---------------------------9-9-9-||
|----10-10---9-9---7-7---5-5-(5)-5-4/5-|---7-7---5-5---4-4---2-2---9-9-9-||
|----10-10---9-9---7-7---5-5-(5)-5-4/5-|---7-7---5-5---4-4---2-2---7-7-7-||
|--0-8--8--0-7-7-0-5-5-0-3-3-(3)-3-2/3-|-0-5-5-0-3-3-0-2-2-0-0-0---------||

Chorus
    Q   E. S E  E  E   E   Q   E. S E  E  E  E   Q   E. S E  E  E   E
||-----------------------|---------------------|----------------------|
||-----------------------|---------------------|----------------------|
||--9---9--9-9--9--12--5-|-7---7--7-7--7--7----|-9---9--9-9--9--12--5-|
||--9---9--9-9--9--12--5-|-7---7--7-7--7--7----|-9---9--9-9--9--12--5-|
||--7---7--7-7--7--10--3-|-5---5--5-5--5--5----|-7---7--7-7--7--10--3-|
||--0---0--0-0--0--------|-------------------0-|-0---0--0-0--0--------|

  E. S E  S S E  S S E  E   Q   E. S E  E  E   E   Q   E. S E  E  E   E
|-------------------------|----------------------|----------------------|
|-------------------------|----------------------|----------------------|
|-5--7-7--7-7-7--7-7-4--7-|-9---9--9-9--9--12--5-|-7---7--7-7--7--7-----|
|-5--7-7--7-7-7--7-7-4--7-|-9---9--9-9--9--12--5-|-7---7--7-7--7--7-----|
|-3--5-5--5-5-5--5-5-2--5-|-7---7--7-7--7--10--3-|-5---5--5-5--5--5-----|
|-------------------------|-0---0--0-0--0--------|--------------------0-|

                                          To Coda.
  Q   E. S E  E  E   E   E. S E  S S E  S S E E
|----------------------|------------------------||
|----------------------|------------------------||
|-9---9--9-9--9--12--5-|-5--7-7--7-7-7--7-7-7-4-||
|-9---9--9-9--9--12--5-|-5--7-7--7-7-7--7-7-7-4-||
|-7---7--7-7--7--10--3-|-3--5-5--5-5-5--5-5-5-2-||
|-0---0--0-0--0--------|------------------------||

Bridge
   Q   E  S S Q   E  S S   Q   E  S S Q   S E.   Q   E  S S Q   E  S S
||-----------------------|---------------------|-----------------------|
||-----------------------|---------------------|-----------------------|
||-2---2--2-2-4---4--4-4-|-5---5--5-5-7---7-7\-|-2---2--2-2-4---4--4-4-|
||-2---2--2-2-4---4--4-4-|-5---5--5-5-7---7-7\-|-2---2--2-2-4---4--4-4-|
||-0---0--0-0-2---2--2-2-|-3---3--3-3-5---5-5\-|-0---0--0-0-2---2--2-2-|
||-----------------------|---------------------|-----------------------|

  Q   E  S S Q   Q    Q   E  S S Q   E  S S   Q   E  S S Q   E  E
|-------------------|-----------------------|---------------------|
|-------------------|-----------------------|---------------------|
|-5---5--5-5-7---7\-|-2---2--2-2-4---4--4-4-|-5---5--5-5-7---5--4-|
|-5---5--5-5-7---7\-|-2---2--2-2-4---4--4-4-|-5---5--5-5-7---5--4-|
|-3---3--3-3-5---5\-|-0---0--0-0-2---2--2-2-|-3---3--3-3-5---3--2-|
|-------------------|-----------------------|---------------------|

  Q   E  S S Q   E  S S   Q   E  S S Q   Q
|-----------------------|------------------|
|-----------------------|------------------|
|-2---2--2-2-4---4--4-4-|-5---5--5-5-7---7-|
|-2---2--2-2-4---4--4-4-|-5---5--5-5-7---7-|
|-0---0--0-0-2---2--2-2-|-3---3--3-3-5---5-|
|-----------------------|------------------|

Verse
   PM      PM    PM      PM
     S S  S  S S S S S  S  S S  S  +S   S  S  S
||------------------------------------------------|
||o-----------------------------------------------|
||-------------------14-14---12-12-(12)-12-11/12--|
||-----10-10---9-9---14-14---12-12-(12)-12-11/12--|
||o----x--x----x-x---12-12-0-10-10-(10)-10-9-/10--|
||---0-8--8--0-7-7-0------------------------------|

   PM      PM      PM     PM
   S S  S  S S  S  S S  S S S S +S  S S S
|------------------------------------------||
|-----------------------------------------o||
|----14-14---12-12---11-11--9-9-(9)-9-7/9--||
|----14-14---12-12---11-11--9-9-(9)-9-7/9--||
|----12-12---10-10---9--9---7-7-(7)-7-5/7-o||
|--0-------0-------0------0----------------||

   PM      PM    PM    PM                PM    PM    PM    PM
   S S  S  S S S S S S S S S +S  S S S   S S S S S S S S S S S S +S  S S S
|--------------------------------------|-----------------------------------|
|--------------------------------------|-----------------------------------|
|--------------------------------------|-----------------------------9-7/9-|
|----10-10---9-9---7-7---5-5-(5)-5-4/5-|---7-7---5-5---4-4---2-2-(2)-9-7/9-|
|----10-10---9-9---7-7---5-5-(5)-5-4/5-|---7-7---5-5---4-4---2-2-(2)-7-5/9-|
|--0-8--8--0-7-7-0-5-5-0-3-3-(3)-3-2/3-|-0-5-5-0-3-3-0-2-2-0-0-0-(0)-------|

   PM      PM    PM    PM                PM    PM    PM    PM
   S S  S  S S S S S S S S S +S  S S S   S S S S S S S S S S S S +Q
|--------------------------------------|-----------------------------|
|--------------------------------------|-----------------------------|
|--------------------------------------|-----------------------------|
|----10-10---9-9---7-7---5-5-(5)-5-4/5-|---7-7---5-5---4-4---2-2-(2)-|
|----10-10---9-9---7-7---5-5-(5)-5-4/5-|---7-7---5-5---4-4---2-2-(2)-|
|--0-8--8--0-7-7-0-5-5-0-3-3-(3)-3-2/3-|-0-5-5-0-3-3-0-2-2-0-0-0-(0)-|

3/4   4/4
  +H.   +W
|-----|-----||
|-----|-----||
|-----|-----||
|-(2)-|-(2)-||
|-(2)-|-(2)-||
|-(0)-|-(0)-||

Interlude
Gtr 4, 2nd time Gtr 3 doubles
    E  S S S E. E  S S  S E.   E  S  S  S E  S  S E  S S E.
||---------------------------|------------------------------||
||o----7-8------7--8-10------|-8--10-12---8--10---7--8-----o||
||--9--------9------------11-|------------------------------||
||---------------------------|---------------------------9--||
||o--------------------------|-----------------------------o||
||---------------------------|------------------------------||

Gtr 4
    E  S  S  S E. E  S  S  S E.   E  S  S  S E  S  S E  S S E.
||------------------------------|--------------------------------||
||o----7--8-------7--8--10------|-8--10-12---8--10---7--8-------o||
||--9----------9-------------11-|--------------------------------||
||------------------------------|---------------------------9----||
||o-----------------------------|-------------------------------o||
||------------------------------|--------------------------------||
|
|Gtr 3
|   E  S  S  S E. E  S  S  S E.   E  S  S  S E  S  S E  S  S E.
||-----14-15------14-15-17---14-|-15-17-19---15-17---14-15-------||
||o-17---------17---------------|-------------------------------o||
||------------------------------|----------------------------16--||
||------------------------------|--------------------------------||
||o-----------------------------|-------------------------------o||
||------------------------------|--------------------------------||

    S S S S Q   S S S S Q   S S S S E  S S S S S S Q
||------------------------|---------------------------||
||o-----------------------|--------------------------o||
||------------------------|------------------------7--||
||------------------------|------------------------7--||
||o-------0-2---3-2-0-3-2-|---3-2-0----0-2-0-------5-o||
||--0-2-3-----------------|---------3--------3-2-0----||
|
|   Fig 1--------------------------------------------|
|   PM-----     PM-----       PM---------------------|
|   S S S S Q   S S S S Q   S S S S E  S S S S S S Q
||------------------------|---------------------------||
||o-----------------------|--------------------------o||
||------------------------|------------------------7--||
||----------4-----------4-|------------------------7--||
||o-------0-2---3-2-0-3-2-|---3-2-0----0-2-0-------5-o||
||--0-2-3-----------------|---------3--------3-2-0----||

    S S S  S Q   S  S S S  Q   S S  S S E  S S S S  S S Q
||---------------------------|-----------------------------||
||o--------------------------|----------------------------o||
||---------------------------|--------------------------7--||
||-----------1-------------1-|--------------------------7--||
||o--------0-----3--2-0-3----|---3--2-0----0-2-0--------5-o||
||--0-2-3--------------------|----------3--------3--2-0----||
|
|Gtr 3 plays Fig 1
|Gtr 2
|   PM------     PM-------       PM--------------------
|   S S S  S Q   S  S S S  Q   S S  S S E  S S S S  S S Q
||---------------------------|-----------------------------||
||o--------------------------|----------------------------o||
||---------------------------|--------------------------7--||
||---------7-9---10-9-7-10-9-|---10-9-7----7-9-7--------7--||
||o-7-9-10-------------------|----------10-------10-9-7-5-o||
||---------------------------|-----------------------------||

Verse
Gtrs 2,3+4
   S S S S E  S S S S E  Q   S S S S S  S S S S E  Q
||--------------------------|-------------------------|
||o-------------------------|-------------------------|
||--7/9-9-9-9--5-5-5/7-7--7-|-x-7-7-7-7--4-4-4/5-5--5-|
||--7/9-9-9-9--5-5-5/7-7--7-|-x-7-7-7-7--4-4-4/5-5--5-|
||o-5/7-7-7-7--3-3-3/5-5--5-|-x-5-5-5-5--2-2-2/3-3--3-|
||--------------------------|-------------------------|

   S S S S E  S S S S E  Q   S S S S S  S S S S E  S S S S
|--------------------------|-------------------------------||
|--------------------------|------------------------------o||
|----9-9-9-9--5-5-5/7-7--7-|-x-7-7-7-7--4-4-4/5-5----------||
|----9-9-9-9--5-5-5/7-7--7-|-x-7-7-7-7--4-4-4/5-5----------||
|----7-7-7-7--3-3-3/5-5--5-|-x-5-5-5-5--2-2-2/3-3--3p2----o||
|--------------------------|---------------------------3-2-||

    H +E  E. E.  H +E  E. E.  H +E  E. E.  H +E  E. E.  W   +W
||-------------|------------|------------|------------|---|-----||
||-------------|------------|------------|------------|---|-----||
||--------0--0-|----------7-|-------0--0-|----------7-|---|-----||
||--2-(2)-2--0-|-2-(2)-5--7-|-2-(2)-2--0-|-2-(2)-5--7-|-2-|-(2)-||
||--2-(2)-3--x-|-2-(2)-5--5-|-2-(2)-3--x-|-2-(2)-5--5-|-2-|-(2)-||
||--0-(0)----3-|-0-(0)-3----|-0-(0)----3-|-0-(0)-3----|-0-|-(0)-||

Solo Rhythm
    E5*                     G5     D5                      G5***
Gtrs 2+3
    S S S S S S S S S S S S E  E   S S S S S S S S S S S S E  E
||-------------------------------|-------------------------------||
||o------------------------------|-------------------------8--8-o||
||--9-9---9-9---9-9---9-9--------|-7-7---7-7---7-7---7-7---7--7--||
||--9-9---9-9---9-9---9-9---5--5-|-5-7---7-7---7-7---7-7---5--5--||
||o-7-7-7-7-7-7-7-7-7-7-7-0-5--5-|-5-5-5-5-5-5-5-5-5-5-5-5-5--5-o||
||--------------------------3--3-|-------------------------------||

Solo (Dave Murray)
      E5                          G5***
      S  S S S S S S S S S S  S   E E cont. sim.
Gtr 5, Gtrs 2+3 plays chords
   a  S  a  E.  +Q   S  E  a  S   +Q
||-------------------12----14b15=r(14)=|
||-15b17-15b17==(17)----12-------------|
||-------------------------------------|
||-------------------------------------|
||-------------------------------------|
||-------------------------------------|
[ Tab from: http://www.guitaretab.com/i/iron-maiden/46782.html ]
  D5                                                G5***
                                  |-------6------|
  +E   S  S  T  T  T  T  S  a  S  S  S  S  a  S  S  S  E  S  a  S
|=(14)-12-14-12h14p12----12-------12-------------------------15b17=|
|---------------------15----15b17---15p12-------12-------12-------|
|------------------------------------------14b16----15p14----------|
|------------------------------------------------------------------|
|------------------------------------------------------------------|
|------------------------------------------------------------------|

   E5                                      G5***
    |---3---|       |--3--|
   +E   E  E  S  S  T  T  T  S  S  a  E.  +E   S  S
|==(17)-15-14-12-14-12h14p12----12-------------12----|
|----------------------------15----15b17==(17)---12-|
|----------------------------------------------------|
|----------------------------------------------------|
|----------------------------------------------------|
|----------------------------------------------------|

  D5                            A5**
                 |--3--|        |--3--|
  S  a  S  S  S  S  S  S  Q     S  S  S  S  S
|-------------------------------------14-15----|
|-15-------12-------------------15-17-------17-|
|----14b16----15-14p12h14-(14)\----------------|
|----------------------------------------------|
|----------------------------------------------|
|----------------------------------------------|

  E5                                           G5***
  |--3--|
  S  S  S  S  S  S  S  T  T  T  T  S  S  S  S  S  T  T  S  S
|-14h15p14----------15-14h15p14----14----------15-14h15-14----|
|----------17-15\12-------------17----17-15\12-------------17-|
|-------------------------------------------------------------|
|-------------------------------------------------------------|
|-------------------------------------------------------------|
|-------------------------------------------------------------|

  D5                             G5***
                            w/bar
  S  S  S. T  T  T  E. +Q   E    a  E
|----12-14p12h14p12--------------15b17-|
|-15----------------15-(15)-(15)\------|
|--------------------------------------|
|--------------------------------------|
|--------------------------------------|
|--------------------------------------|

  E5                                              G5***
  |--3--|     |--3--|         |----------7---------|  |--3--|
  E  E  E  S  T  T  T  S  S   a  S  S  S  S  S  S  S  S  S  S  T  T  S
|-15-14-12-14-12h14p12----12--------12----------------------------------|
|----------------------15-----15b17----15p14p12----12-14p13p12----------|
|-----------------------------------------------15-------------15p14p12-|
|-----------------------------------------------------------------------|
|-----------------------------------------------------------------------|
|-----------------------------------------------------------------------|

                                        ~~~~~~~~~~~~~
  a  E   +T   T  a  S  +S    +T   T  S  S  +Q   +Q
|-----------------------------------------------------||
|-----------------------------------------------------||
|-14b16=r(14)p12-14b16=(16)=r(14)p12-14-14-(14)-(14)\-||
|-----------------------------------------------------||
|-----------------------------------------------------||
|-----------------------------------------------------||

   C#5                                  E5*
Solo (Adrian Smith)
Gtr 6
                |--3--|  |------6-----| |-------6-------|
   a   E  S S E S  S  S  S  S S  S S  S a  E  S S  S S  S
||-8pb(9)r8-9-9-9--11-12-11p9---9------------9------------|
||----------------------------12---12p9---------12p9-------|
||--------------------------------------11b13--------11b12-|
||---------------------------------------------------------|
||---------------------------------------------------------|
||---------------------------------------------------------|

  B5                            F#5**
  |-----6-----|  |------6-----|                ~~~~~
  S  S S S  S S  S S  S S  S  S T T  S S  S S  +Q
|----------------9--------------9-------------------|
|------9-12p9------12p9-------9---12p9--------------|
|-11p9--------12--------11b13----------11p9---------|
|---------------------------------------------------|
|-------------------------------------------11-(11)-|
|---------------------------------------------------|

  C#5                       E5*            B5           F#5
  PH    PH        PH        PH         PH
  S S S S +S  S S S +S  S S S +S  S S  S   +S S S a E E E S S S +Q
|----------------------------------------|----0-2-0h2-0-------------|
|----------------------------------------|--------------4-0---4-(4)-|
|-8-----8-(8)-----8-(8)-----8-(8)-9-11-8-|-(8)--------------1-------|
|---9-x-------9-x-------9-x--------------|--------------------------|
|----------------------------------------|--------------------------|
|----------------------------------------|--------------------------|

  C#5                                                  E5*
  |-----6-----|  |--3--|
  S  S  S  S  S  S  S  S  S  T  T  T  T  T  T  T  T  +Q   S S
|-----------------------------------------------------------9-|
|---------------------------------------------------------9---|
|----------11-13-14----------11-13-14----------11-13-(13)\----|
|-11-13-14----------11-13-14----------11-13-14----------------|
|-------------------------------------------------------------|
|-------------------------------------------------------------|

  B5                                   F#5**
                                           |--3--|
  S E  S E  S  a  S  +S    +S   S  S  +E   S  S  S
|---11---12-12-11b12=(12)=r(11)---------------------|
|-9----9------------------------10-10-(10)-14h16h17-|
|---------------------------------------------------|
|---------------------------------------------------|
|---------------------------------------------------|
|---------------------------------------------------|

  C#5                                                      E5*
  |-------6------|  |-------6------|              |--3--|  |-----6-----|
  S  S  S  S  S  S  S  S  S  S  S  S  T  T  T  T  S  S  S  S  S  E  S  S
|-14-16-17h16p14----14----------------14----------------------------------|
|----------------17----17p16-14-16-17----17p16p14-17-16p14----16p14-------|
|----------------------------------------------------------16-------16p14-|
|-------------------------------------------------------------------------|
|-------------------------------------------------------------------------|
|-------------------------------------------------------------------------|

  B5                                                 F#5
  |-------6------|              |--3--|  |-------6------|     ~~~~
  S  S  S  S  S  S  T  T  T  T  S  S  S  S  S  S  S  S  S  S +E.
|----------------------------14-16-17----------14-16-17-17-17b19-||
|-14h16-------------14-16-17----------14h16h17-------------------||
|----------13h14h16----------------------------------------------||
|-------16-------------------------------------------------------||
|----------------------------------------------------------------||
|----------------------------------------------------------------||

    G#5                     B5     F#5                     C#5
Bridge
Gtrs 2,3+4
    S S S S S S S S S S S S E  E   S S S S S S S S S S S S E  E  4x
||-------------------------------|-------------------------------||
||o------------------------------|------------------------------o||
||-------------------------------|-------------------------6--6--||
||--6-6-x-6-6-x-6-6-x-6-6-x-9--9-|-4-4-x-4-4-x-4-4-x-4-4-x-6--6--||
||o-6-6-x-6-6-x-6-6-x-6-6-x-9--9-|-4-4-x-4-4-x-4-4-x-4-4-x-4--4-o||
||--4-4-x-4-4-x-4-4-x-4-4-x-7--7-|-2-2-x-2-2-x-2-2-x-2-2-x-------||

Solo (Janick Gers)
   D5                                         F5
   S S S S   S S    S S   S    S    S     S   E   E cont. sim.
Gtr 7, Gtr 2 plays chords
         w/bar   PH     |---------6--------|
   a  E. S  +E   a  E  +E   a   S  +S   S  S  S  E.
||--------------------------------------------------|
||--------------------------------------------------|
||-12b14-10-(10)-12b14=(14)-12pb14r(12)p10----------|
||-----------------------------------------12-10----|
||--------------------------------------------------|
||-----------------------------------------------10-|
|
|Gtr 3
| Fig 2------
|     E. S  +E      E.        E.              E  E
||--------------------------------------------------|
||-------6--(6)-----8---------8---------------6--6--|
||----7--5--(5)-----5---------5---------------5--5--|
||----7--7--(7)-----7---------7---------------3--3--|
||----5--5--(5)-----5---------5---------------3--3--|
||--------------------------------------------------|

  C5                                              G5***
                 |--3--|
  a  Q   +S   S  S  S  S  T  T  T  T  T  T  T  T  E  E
|-------------------------------------------------------|
|-13b15=r(13)-13p10----10----10h12p10----10-------------|
|-------------------13----13----------13----13----10----|
|----------------------------------------------12-------|
|-------------------------------------------------------|
|----------------------------------------------------10-|
|
|                                      ------Fig 2 End
| S S S S S   S   S  S    S     S     S     S     E  E
|-------------------------------------------------------|
|-------------------------------------------------8--8--|
|-5-5-5-5-5---5---5--5----5-----5-----5-----5-----7--7--|
|-5-5-5-5-5---5---5--5----5-----5-----5-----5-----5--5--|
|-3-3-3-3-3---3---3--3----3-----3-----3-----3-----5--5--|
|-------------------------------------------------------|

      D5                                  F5
  a a a  Q  S  S  T  T  T  T  S  S  T  S. E  E
|-----13b15-13-12-10-10--------------------------|
|-x-x-------------------13-12-10-12-13-13-13-----|
|------------------------------------------------|
|------------------------------------------------|
|--------------------------------------------15\-|
|------------------------------------------------|

  C5                                       G5***
  S T T T T  T S  S  T  T  S  S  S  a  Q  +S    S  S  S
|-----------------------------------------------------13b=|
|-----------------------------------13b15=(15)=r13--------|
|---7h8p7------------10h12p10----10----------------12-----|
|---------10-9-10-12----------12--------------------------|
|---------------------------------------------------------|
|---------------------------------------------------------|

  D5                                                  F5
                                                            |--3--|
  S  S  S  S  S  S  S  a  S   S    S   T  T  T  T  S  T  T  S  S  S
|=15-13-12-10----10--------------------------------------------------|
|-------------10----10-13b15=(15)r(13)-10----10----10-10----10----10-|
|-----------------------------------------13----13-------13----13----|
|--------------------------------------------------------------------|
|--------------------------------------------------------------------|
|--------------------------------------------------------------------|

  C5                                                                   G5***
                                                              |--3--|
  T  T  T  T  T  T  T  T  T  T  T  T  T  T  T  T  T  T  T  T  S  S  S  T  S.
|----------------------------------------------------12-13-15p13-------------|
|-13p10----10-15p10----10-13p10----10-15p10----10-13-------------15p13-------|
|-------13----------13----------12----------12-------------------------------|
|----------------------------------------------------------------------------|
|----------------------------------------------------------------------15----|
|-------------------------------------------------------------------------12-|

        D5                                        F5
                                                  |----3---|
 +E     S  E  S  S  S  S  S  S  T  T  T  T  T  T  E  E  S  S
------|-------13p12-13p12----12----12-15p13p12---12----------|
------|-------------------13----13-------------13---13-13p10-|
------|-12b14-------------------------------------------------|
------|-------------------------------------------------------|
------|-------------------------------------------------------|
-(12)-|-------------------------------------------------------|

  C5                                       G5***
  |--3--|
  S  S  S  T  T  S  S. T  S  S  S  S  S S  S E.
|------------------------------------------------||
|---10------------------------------------------||
|-13---13-12p10---10---------------------------||
|----------------12---12-10---------------------||
|----------------------------12-11-10-8----8-----||
|---------------------------------------10---10\-||

 Gtrs 2,3+4
    PM      PM    PM      PM
    S S  S  S S S S S  S  S S  S  +S   S  S  S
||-----------------------------------------------|
||-----------------------------------------------|
||------------------14-14---12-12-(12)-12-11/12--|
||----10-10---9-9---14-14---12-12-(12)-12-11/12--|
||----x--x----x-x---12-12-0-10-10-(10)-10-9-/10--|
||--0-8--8--0-7-7-0------------------------------|

   PM      PM      PM     PM
   S S  S  S S  S  S S  S S S S +S  S S S
|-----------------------------------------|
|-----------------------------------------|
|----14-14---12-12---11-11--9-9-(9)-9-7/9-|
|----14-14---12-12---11-11--9-9-(9)-9-7/9-|
|----12-12---10-10---9--9---7-7-(7)-7-5/7-|
|--0-------0-------0------0---------------|

   PM      PM    PM      PM
   S S  S  S S S S S  S  S S  S  +S   S  S  S
|-----------------------------------------------|
|-----------------------------------------------|
|------------------14-14---12-12-(12)-12-11/12--|
|----10-10---9-9---14-14---12-12-(12)-12-11/12--|
|----x--x----x-x---12-12-0-10-10-(10)-10-9-/10--|
|--0-8--8--0-7-7-0------------------------------|

                               D.S. al Coda
   PM      PM      PM     PM
   S S  S  S S  S  S S  S S S S +S  S S S
|-----------------------------------------||
|-----------------------------------------||
|----14-14---12-12---11-11--9-9-(9)-9-7/9-||
|----14-14---12-12---11-11--9-9-(9)-9-7/9-||
|----12-12---10-10---9--9---7-7-(7)-7-5/7-||
|--0-------0-------0------0---------------||

Coda
Chorus
    Q   E. S E  E  E   E   Q   E. S E  E  E  E   Q   E. S E  E  E   E
||-----------------------|---------------------|----------------------|
||-----------------------|---------------------|----------------------|
||--9---9--9-9--9--12--5-|-7---7--7-7--7--7----|-9---9--9-9--9--12--5-|
||--9---9--9-9--9--12--5-|-7---7--7-7--7--7----|-9---9--9-9--9--12--5-|
||--7---7--7-7--7--10--3-|-5---5--5-5--5--5----|-7---7--7-7--7--10--3-|
||--0---0--0-0--0--------|-------------------0-|-0---0--0-0--0--------|

  E. S E  S S E  S S E  S S   Q   E. S E  E  E   E   Q   E. S E  E  E  E
|---------------------------|----------------------|---------------------|
|---------------------------|----------------------|---------------------|
|-5--7-7--7-7-7--7-7-7--9-9-|-9---9--9-9--9--12--5-|-7---7--7-7--7--4--7-|
|-5--7-7--7-7-7--7-7-7--9-9-|-9---9--9-9--9--12--5-|-7---7--7-7--7--4--7-|
|-3--5-5--5-5-5--5-5-5--7-7-|-7---7--7-7--7--10--3-|-5---5--5-5--5--2--5-|
|---------------------------|-0---0--0-0--0--------|---------------------|

  Q   E. S E  E  E   E   E. S E  S S E  S S E E
|----------------------|------------------------||
|----------------------|------------------------||
|-9---9--9-9--9--12--5-|-5--7-7--7-7-7--7-7-7-7-||
|-9---9--9-9--9--12--5-|-5--7-7--7-7-7--7-7-7-7-||
|-7---7--7-7--7--10--3-|-3--5-5--5-5-5--5-5-5-5-||
|-0---0--0-0--0--------|------------------------||

                                                          3/4   4/4
    H +E  E. E.  H +E  E. E.  H +E  E. E.  H +E  E. E.  W   +H.
||-------------|------------|------------|------------|---|-----|-----|
||-------------|------------|------------|------------|---|-----|-----|
||--------0--0-|----------7-|-------0--0-|----------7-|---|-----|-----|
||--2-(2)-2--0-|-2-(2)-5--7-|-2-(2)-2--0-|-2-(2)-5--7-|-2-|-(2)-|-(2)-|
||--2-(2)-3--x-|-2-(2)-5--5-|-2-(2)-3--x-|-2-(2)-5--5-|-2-|-(2)-|-(2)-|
||--0-(0)----3-|-0-(0)-3----|-0-(0)----3-|-0-(0)-3----|-0-|-(0)-|-(2)-|

Gtr I
   S S  S  S S S  S S S  S S S  S S E    S S S  S S S  S S S  S S S  E E  3x
||-0h10t12p0h8t12p0h7t12p0h5t12p0h7t12-|p0h7t12p0h5t12p0h3t12p0h2t12p0t12-||
||o------------------------------------|---------------------------------o||
||-------------------------------------|----------------------------------||
||-------------------------------------|----------------------------------||
||o------------------------------------|---------------------------------o||
||-------------------------------------|----------------------------------||

  S S  S  S S S  S S S  S S S  S S E    S S S  S S S  S S S  S S S  Q
|-0h10t12p0h8t12p0h7t12p0h5t12p0h7t12-|p0h7t12p0h5t12p0h3t12p0h2t12p0-|
|-------------------------------------|-------------------------------|
|-------------------------------------|-------------------------------|
|-------------------------------------|-------------------------------|
|-------------------------------------|-------------------------------|
|-------------------------------------|-------------------------------|

=======================================================================
Chords

Note: I've only put chords on the solos to save space. Chords marked with one or more 
indicate that they don't look exactly like they would without them.

  A5**  B5  C5 C#5  D5  E5 E5*  F5 F#5**  G5 G5*** G#5
|-----|---|---|---|---|---|---|---|-----|---|-----|---|
|-----|---|---|---|---|---|---|-6-|--6--|---|--8--|---|
|-----|-4-|-5-|-6-|-7-|---|-9-|-5-|--5--|---|--7--|---|
|--7--|-4-|-5-|-6-|-7-|-2-|-9-|-3-|--4--|-5-|--5--|-6-|
|--7--|-2-|-3-|-4-|-5-|-2-|-7-|-3-|--4--|-5-|--5--|-6-|
|--5--|---|---|---|---|-0-|---|---|-----|-3-|-----|-4-|
========================================================================

Duration Legend
---------------
W - whole; H - half; Q - quarter; E - 8th; S - 16th; T - 32nd; X - 64th; a - acciaccatura
+ - note tied to previous; . - note dotted; .. - note double dotted
Uncapitalized letters represent notes that are staccato (1/2 duration)
Irregular groupings are notated above the duration line
Duration letters will always appear directly above the note/fret number it represents the
duration for.  Duration letters with no fret number below them represent rests.  Multi-
bar rests are notated in the form Wxn, where n is the number of bars to rest for.  Low
melody durations appear below the staff

Tablature Legend
----------------
 h   - hammer-on
 p   - pull-off
 b   - bend
 pb  - pre-bend
 r   - bend release (if no number after the r, then release immediately)
 /\  - slide into or out of (from/to "nowhere")
 s   - legato slide
 S   - shift slide
  - natural harmonic
[n]  - artificial harmonic
n(n) - tapped harmonic
 ~   - vibrato
 tr  - trill
 T   - tap
 TP  - trem. picking
 PM  - palm muting
\n/  - tremolo bar dip; n = amount to dip
 \n  - tremolo bar down
 n/  - tremolo bar up
/n\  - tremolo bar inverted dip
 =   - hold bend; also acts as connecting device for hammers/pulls
 <> - volume swell (louder/softer)
 x   - on rhythm slash represents muted slash
 o   - on rhythm slash represents single note slash

Misc Legend
-----------
 |  - bar
||  - double bar
||o - repeat start
o|| - repeat end
*|  - double bar (ending)
 :  - bar (freetime)
 $  - Segno
 &  - Coda
Tempo markers -  = BPM(8/16=s8/s16), where s8 = swing 8ths, s16 = swing 16ths
D.$.al Coda - Go back to the sign ($), then play untill the bar marked "To Coda &" then 
to the section marked "& Coda"
Related for Paschendale tab