Song name
# A B C D E F G H I J K L M N O P Q R S T U V W X Y Z

Iron Maiden - Face In The Sand tab

-------------------------------------------------------------------------------
			     Face In The Sand - Iron Maiden
-------------------------------------------------------------------------------
Tabbed by: Matthew
Email: davebatista696@hotmail.com

Tuning: Standard

Intro:
E|------------------------------------------------------------------|
B|------------------------------------------------------------------|
G|-----7--------------------------7---------------------------------|
D|-9-9---9-7----7-9-7---------9-9---9-7----7-9-7--------------------|
A|-----------10-------10-9-7-----------10---------------------------|
E|------------------------------------------------------------------|

E|-----------------------------------------------------------------|
B|-----------------------------------------------------------------|
G|-----7-----------------------------------------------------------|
D|-9-9---9-7----7-9-7----------------7-9-7-------------------------|
A|-----------10-------10-9-7-9-10-10-------10-9--------------------|
E|----------------------------------------------10-----------------|


e|--------------------------------------------------------------------------|
B|--------------------------------------------------------------------------|
G|--------------------------------------------------------------------------|
D|-5-4-----5-4-----5-4-----5-4---------5-4-----5-4------5-4-----------------|
A|-----7-------7-------7-------5-----------7-------7--------5---------------|
E|--------------------------------------------------------------------------|

e|--------------------------------------------------------------------------|
B|--------------------------------------------------------------------------|
G|--------------------------------------------------------------------------|
D|-5-4-----5-4-----5-4-----5-4-----5-4-----4-5------7--9--7-----------------|
A|-----7-------7-------7-------5-------7-------10---------------------------|
E|--------------------------------------------------------------------------|

Bridge:


e|--------------------------------------------------------------------------|
B|--------------------------------------------------------------------------|
G|--------------------------------------------------------------------------|
D|--------------------------------------------------------------------------|
A|--------------------------------------------------------------------------|
E|-0-0-0-0-0-0-0-0-0-0-0-0-0-0-0-0-0-0-0-0-0-0-0-0--------------------------| (x6)

e|--------------------------------------------------------------------------|
B|--------------------------------------------------------------------------|
G|--------------------------------------------------------------------------|
D|--------------------------------------------------------------------------|
A|-3-3-3-3-3-3-3-3-3-3-3-3-3-3-3-3-3-3-3-3-3-3-3-3--------------------------|
E|--------------------------------------------------------------------------|
 (x2)

Fig1
e|--------------------------------------------------------------------------|
B|--------------------------------------------------------------------------|
G|-4/5------5/7--------------------12--12--12--12--12--12--12---------------|
D|-4/5------5/7------2~------------12--12--12--12--12--12--12---------------|
A|-2/3------3/5------2~------------12--12--12--12--12--12--12---------------|
E|-------------------0~-----------------------------------------------------|


e|--------------------------------------------------------------------------|
B|--------------------------------------------------------------------------|
G|--------------------------------------------------------------------------|
D|--------------------------------------------------------------------------|
A|--7--9-10----7--9-----5--7------------------------------------------------|
E|-(0)----------------------------------------------------------------------|

(Continue till Necessary)

e|--------------------------------------------------------------------------|
B|--------------------------------------------------------------------------|
G|--4-------5----7----------------------------------------------------------|
D|--4-------5----7----------------------------------------------------------|
A|--2-------3----5----------------------------------------------------------|
E|--------------------------------------------------------------------------|


Chorus:
e|--------------------------------------------------------------------------|
B|------------------------------------8p7-----------------------------------|
G|-9---12---5----7----2----5----7---------7---------------------------------|
D|-9---12---5----7----2----5----7-------------------------------------------|
A|-7---10---3----5----0----3----5-------------------------------------------|
E|--------------------------------------------------------------------------|

Interlude:
Palm Mute
e|--------------------------------------------------------------------------|
B|--------------------------------------------------------------------------|
G|--------------------------------------------------------------------------|
D|-----------7----9--7--10--9--7--------------------------------------------|
A|-7--10--9----10-----------------10--9-------------------------------------|
E|--------------------------------------------------------------------------|
  (Continue till Necesarry)

Solo Rythem:
e|--------------------------------------------------------------------------|
B|--------------------------------------------------------------------------|
G|--------------------------------------------------------------------------|
D|--------------------------------------------------------------------------|
A|-2--2--2--2--2--2--2--2--2--2--2--5--5--7---------------------------------|
E|-0--0--0--0--0--0--0--0--0--0--0--3--3--5--(x3)---------------------------|

e|--------------------------------------------------------------------------|
B|--------------------------------------------------------------------------|
G|--------------------------------------------------------------------------|
D|-5--5--5--5--5--5--7--7--7--7--7--7---------------------------------------|
A|-3--3--3--3--3--3--5--5--5--5--5--5---------------------------------------|
E|--------------------------------------------------------------------------|

e|--------------------------------------------------------------------------|
B|--------------------------------------------------------------------------|
G|--------------------------------------------------------------------------|
D|--------------------------------------------------------------------------|
A|-2--2--2--2--2--2--2--2--2--2--2--5--5--7---------------------------------|
E|-0--0--0--0--0--0--0--0--0--0--0--3--3--5--(x3)---------------------------|

e|--------------------------------------------------------------------------|
B|--------------------------------------------------------------------------|
G|--------------------------------------------------------------------------|
D|-5--5--5--5--5--5--7--7--7--7--7--7---------------------------------------|
A|-3--3--3--3--3--3--5--5--5--5--5--5---------------------------------------|
E|--------------------------------------------------------------------------|

(Fig1)
(Chorus)

Ending:
Let ring
e|--------------------------------------------------------------------------|
B|--------------------------------------------------------------------------|
G|--------------------------------------------------------------------------|
D|-(X)-7- (9)--(5)-(7)-(4)-(5)----------------------------------------------|
A|--X--9--10----7---9---5---7---(x4)----------------------------------------|
E|--------------------------------------------------------------------------|

Well...Thats all i know...Its a tab from Malta cz im Maltese ;)....msg me 4 errors
Tap to rate this tab
# A B C D E F G H I J K L M N O P Q R S T U V W X Y Z