Song name
# A B C D E F G H I J K L M N O P Q R S T U V W X Y Z

Iron Maiden - The Trooper Live tab

iron maiden
the trooper solo live @ rock in rio

chris garr
burnip.garr@btopenworld.com

dave murray
-0h5h8p5p0--------------------------------------------------------|
-----------0h5h8p5p0----------------------------------------------|
----------------------7br7-6-5----6-5-----------------------------|
--------------------------------7-----7-5-------------------------|
------------------------------------------6p5---------------------|
----------------------------------------------8-5\3---------------|

------------------------------------------------------------------|
------------------------------------------------------------------|
-5h7p5h7p5-7h9p7h9p7-9h10p9h10p9-10h12p10h12p10-12h14p12----------|
------------------------------------------------------------------|
------------------------------------------------------------------|
------------------------------------------------------------------|

---------------------------------------------------------12-------|
-15br15br15-13-15br15--------12-13----12-13-15--12-13-15----------|
-----------------------12-14-------14-----------------------------|
------------------------------------------------------------------|
------------------------------------------------------------------|
------------------------------------------------------------------|

--------12h13----12-13-15-13-12h13p12----12-13--17-17-17-17-17----|
--13-15-------15----------------------15--------------------------|
------------------------------------------------------------------|
------------------------------------------------------------------|
------------------------------------------------------------------|
------------------------------------------------------------------|

-19-19--20-19-17--20-19-17--20-19-17--20-19-17---20br20b----------|
------------------------------------------------------------------|
------------------------------------------------------------------|
------------------------------------------------------------------|
------------------------------------------------------------------|
------------------------------------------------------------------|
Tap to rate this tab
# A B C D E F G H I J K L M N O P Q R S T U V W X Y Z