Song name
# A B C D E F G H I J K L M N O P Q R S T U V W X Y Z

Iron Maiden - Sum Of All Fears tab

Listen this song is very rare so you may have never heard it but trust me it is excellent!
                    x3

e|-12-12-12-10-12-12-12-10-12-0-12-12-12-10-12-0------------------------------------|
B|----------------------------------------------------------------------------------|
G|----------------------------------------------------------------------------------|
D|----------------------------------------------------------------------------------|
A|------------------------------------------------2---2-2--3-2----------------------|
E|------------------------------------------------0-3---0---------------------------|
          x4
e|--12-12-12-10------------------------------------------------------------------------|
B|---------------12-10-----------------------------------------------------------------|
G|-------------------------------------------------------------------------------------|
D|-------------------------------------------------------------------------------------|
A|-------------------------------------------------------------------------------------|
E|-------------------------------------------------------------------------------------|

e|-------------------------------------------------------------------------------------|
B|-------------------------------------------------------------------------------------|
G|-------------------------------------------------------------------------------------|
D|-------------------------------------------------------------------------------------|
A|---2-2-2--4-5--4-4-----2-2-----------------------------------------------------------|
E|---0-0-0--2-3--2-2-----0-0-----------------------------------------------------------|
Tap to rate this tab
# A B C D E F G H I J K L M N O P Q R S T U V W X Y Z