Guitaretab - guitar tabs
Song name
# A B C D E F G H I J K L M N O P Q R S T U V W X Y Z

Iron Maiden - Charlotte In The Harlot tab

song-charlotte the harlot
artist-iron maiden
album-iron maiden
words by-dave murray
tabbed by-smellslikefeet1

I apologize up front to all who view this tab...
its absolutly horrible and crude. Its from an Iron maiden Guitar tab book by a bunch of fucks
who dont know the style/ this is jsut a quick way to play charlotte the harlot and if
are a serrious hardcore iron maiden fan i suggest u do not waste your time lookin at it.
 The real tab is being picked out by me and will be up in a few weeks. i also
spologize for the major mistakes in the song title. THIS IS NOT ONE OF MY TABS FOR THE 
this was put on here by one of my idiot friedns without my consent!

thank you!

-adam aka smellslikefeet1

intro

|-5---3-3----------------|-5----3-2-------------|
|-7---3-2----------------|-7----3-3--5-5-5------|
|----------5-5---5-5-5-5-|-----------6-7-6--6---|
|----------6-7---7-7-7-6-|------------------7---|repeat
|------------------------|----------------------|
|------------------------|----------------------|

|-5---------3----2----0----------------0---|
|-7---------3----3----2--3---3-----3---2---|
|-7---------4----2----2--2---2-----2---2---|
|-7---------5----0----2--2---2-----2---2---|
|------------------------------------------|
|------------------------------------------|


|-5---------3----2----0----------------0---|
|-7---------3----3----2--3---3-----3---2---|
|-7---------4----2----2--2---2-----2---2---|
|-7---------5----0----2--2---2-----2---2---|
|------------------------------------------|
|------------------------------------------|

[ Tab from: http://www.guitaretab.com/i/iron-maiden/56278.html ]
|---5--------3---2---0---0---0--------------|
|---7--------3---3---2---3---2-----1--------|
|---7--------4---2---2---2---2-----2--------|
|---7--------5---0---2---2---2-----2--------|
|----------------------------------0--------|
|-------------------------------------------|

|-5------3---2-----5-------3---0-----|
|-7------3---3-----7-------3---2-----|
|-7------4---2-----7-------4---3-----|
|-7------5---0-----7-------5---2-----|
|------------------------------------|
|------------------------------------|


|---5----3---2----0---0----0------|-----3----------------|
|---7----3---3----2---3----2------|-----0---2------------|
|---7----4---2----2---2----2------|-----0---3------------|
|---7----5---0----2---2----2------|-----0---0--------0---|
|------------------------------0--|-2--------------------|
|---------------------------------|----------------------|

|-----3----------------|
|-----0---2------------|
|-----0---3------------|
|-----0---0--------0---|
|-2--------------------|
|----------------------|


|-5---------3----2----0----------------0---|
|-7---------3----3----2--3---3-----3---2---|
|-7---------4----2----2--2---2-----2---2---|
|-7---------5----0----2--2---2-----2---2---|
|------------------------------------------|
|------------------------------------------|

|-5-------3---2---0---------0--------|
|-7-------3---3---2-----3---2---1----|
|-7-------5---2---2-----2---2---2----|
|-7-------5---0---2-----2---2---2----|
|-------------------------------0----|
|------------------------------------|


|-5---------3----2--|
|-7---------3----3--|
|-7---------4----2--|
|-7---------5----0--|
|-------------------|
|-------------------|

|-5---------3----2--|
|-7---------3----3--|
|-7---------4----2--|
|-7---------5----0--|
|-------------------|
|-------------------|

|-5---------3----2----1---0--0---------|
|-7---------3----3----2---3--2---------|
|-7---------4----2----2---2--2---------|
|-7---------5----0----2---2--2---------|
|---------------------2----------------|
|--------------------------------------|
Related for Charlotte In The Harlot tab
Advertisement will be closed in 10 seconds