Song name
# A B C D E F G H I J K L M N O P Q R S T U V W X Y Z

Iron Maiden - Another Life tab

Intro
-||---------------------|-----------------|-----------------|------------|----|
-||--------------8b-----|------------8b---|------------8b---|------------|----|
-||------5-7-5---7b-----|----5-7-5---7b---|----5-7-5---7b---|5----5------|----|
-||--/7-----------------|/7---------------|/7---------------|--7--------7|----|
-||---------------------|-----------------|-----------------|------------|----|
-||---------------------|-----------------|-----------------|------------|----|

                                                                  ~~~~~
-------------------|-------------------|-------------------|------------||----|
------------8b-----|------------8b-----|------------8b-----|------------||----|
-----5-7-5--7b-----|----5-7-5---7b-----|----5-7-5---7b-----|5----5------||----|
-/7----------------|/7-----------------|/7-----------------|--7--------7||----|
-------------------|-------------------|-------------------|------------||----|
-------------------|-------------------|-------------------|------------||----|

   %
-||---------------------------------------------------------------------------|
-||---------------------------------------------------------------------------|
-||---------------------------------------------------------------------------|
-||7---7-7-7---7---7--7-7-7----7---7---7---7-7-7--5---5-5-5---5---5---5-------|
-||7---7-7-7---7---7--7-7-7----7---7---7---7-7-7--5---5-5-5---5---5---5-------|
-||5---------5-5-5-5---------5---5---5------------3---------3---3---3---------|

             Rhy fig 1.
-----------||--------------------------------------------------||-------------|
-----------||*------------------------------------------------*||-------------|
-----------||--------------------------------------------------||-------------|
---5--5-5-5||-7---7-7-7---7---7----7-7-7----7---7---7----7-7-7-||-------------|
---5--5-5-5||*7---7-7-7---7---7----7-7-7----7---7---7----7-7-7*||-------------|
-3---------||-5---------5-5-5-5-----------5---5---5------------||-------------|

                  end fig 1.   Rhy. Fig 2
-----------------------------||-------------------------------------|---------|
-----------------------------||-------------------------------------|---------|
-----------------------------||-------------------------------------|---------|
-5-----5---5---5---5---5-5-5-||7---7---7---7-7-7-----7----7---7-7-7-|--7---7--|
-5-----5---5---5---5---5-5-5-||7---7---7---7-7-7-----7----7---7-7-7-|--7---7--|
-3---3---3---3---3-----------||5---5-5-----------5-5-5--5-5---------|5---5----|
                                As I lay here ly-ing on my bed, sweet voices

-------------------------|------------------|-------------|-------------------|
-------------------------|------------------|-------------|-------------------|
-------------------------|------------------|-------------|-------------------|
---7---7-7-7-------------|5------5---5---5--|5---5-5-5----|7---7---7---7-7-7--|
---7---7-7-7-------------|5------5---5---5--|5---5-5-5----|7---7---7---7-7-7--|
-5-----------------------|3----3---3---3---3|-------------|5---5-5------------|
 come_ into my head.        What it is, I wanna know,____      Please

----------------------------------|----------------|---------------|----------|
----------------------------------|----------------|---------------|----------|
----------------------------------|----------------|---------------|----------|
-----7---7-7-7-----7---7---7---7-7|7------9-----9--|--10-----11----|10-----9--|
-----7---7-7-7-----7---7---7---7-7|7------9-----9--|---9------9----|-9-----9--|
-5-5-5-----------5-5-5---5--------|---7-7---7-7---7|7----7-7----7-7|---7-7----|
 won't you tell me it's got-ta go._______________________________

--------------------------------------|-----------------------------|---------|
--------------------------------------|-----------------------------|---------|
--------------------------------------|-----------------------------|---------|
-7---7---7---7-7-7-----7----7---7-7-7-|--7---7-----7---7-7-7-----7--|5------5-|
-7---7---7---7-7-7-----7----7---7-7-7-|--7---7-----7---7-7-7-----7--|5------5-|
-5---5-5-----------5-5-5--5-5---------|5---5---5-5-5---------5-5-5--|3----3---|
 There's a feeling that's inside me    telling me to get a-way.____  But I'm
                                              End fig 1.  Interlude
-----------------------|--------------------------------||--------------------|
-----------------------|--------------------------------||*-------------------|
-----------------------|--------------------------------||19-19-19-19-19-19---|
---5---5---5---5-5-5---|-7-----7---7---7---7----7-7-7---||--------------------|
---5---5---5---5-5-5---|-7-----7---7---7---7----7-7-7---||*-------------------|
-3---3---3-------------|-5---5---5---5---5--------------||--------------------|
 so tired of living.     I might as well end to-day.___
                                                 (end interlude)
---------------------||-----------------------------------12----||------------|
--------------------*||-----------------------------------------||------------|
-19----19-17-15-17---||19-17-15-17-----19-17-15-14-12-10--------||------------|
---------------------||-----------------------------------------||------------|
--------------------*||-----------------------------------------||------------|
---------------------||-----------------------------------------||------------|
         Play 3 times                                   (To Coda)

-||-----------------------------------------------------------------------||--|
-||-----------------------------------------------------------------------||--|
-||-----------------------------------------------------------------------||--|
-||-----------------------------------------------------------------------||--|
-||-----------------------------------------------------------------------||--|
-||-----------------------------------------------------------------------||--|
         Play Rhy. Fig 1. Then verse, then Interlude, then following Rhym.

-||----------------------------------------------------------------------------|
-||*---------------------------------------------------------------------------|
-||----------------------------------------------------------------------------|
-||----------------------------------------------------------------------------|
-||*-10--10--10---------10--------13--13--13---------13--------12--12-12-------|
-||--8---8---8----8-8-8-8----8-8--11--11--11--111111-11--1111--10--10-10-------|
                 |--3--|    |---|            |--3---|   |----------------------|

-------------------------------------------------------||----------------------|
------------------------------------------------------*||----------------------|
-------------------------------------------------------||----------------------|
-------------------------------------------------------||----------------------|
---------12-------12--12-131313\1212--------12------12*||10--1010-10--1010-----|
-101010--10--1010-10--10-111111\1010-101010-10-1010-10-||8----8-8--8---8-8-----|
|--3---|    |----|       |----------||--3--|   |---|         |---|    |--------|

------------------|------------------------------------|-----------------------|
------------------|------------------------------------|-----------------------|
------------------|------------------------------------|-----------------------|
------------------|------------------------------------|-----------------------|
-10--1010-10101010|-13--1313-13--1313-13--1313-13131313|-12--1212-12--1212-----|
--8---8-8--8-8-8-8|-11--1111-11--1111-11--1111-11111111|-10--1010-10--1010-----|
    |----||-------|    |----|   |----|   |----||-------------------------------|

------------------|------------------------------------|----------------------|
------------------|------------------------------------|----------------------|
------------------|------------------------------------|----------------------|
------------------|------------------------------------|----------------------|
-12--1212-12121212|-12--1212-12--1212-12--1212-12121212|-10--1010-10--1010----|
-10--1010-10101010|-10--1010-10--1010-10--1010-10101010|--8---8-8--8---8-8----|


------------------|------------------------------------|----------------------|
------------------|------------------------------------|----------------------|
------------------|------------------------------------|----------------------|
------------------|------------------------------------|-10--1010-10--1010----|
-10--1010-10101010|-13--1313-13--1313-13--1313-13131313|--8---8-8--8---8-8----|
--8---8-8--8-8-8-8|-11--1111-11--1111-11--1111-11111111|----------------------|

                                            go to %
------------------|-----------------------||-------------------------------|-|
------------------|-----------------------||-------------------------------|-|
------------------|-9---------------------||-------------------------------|-|
-10--1010-10101010|-7---------------------||-------------------------------|-|
--8---8-8--8-8-8-8|-0---------------------||-------------------------------|-|
------------------|-----------------------||-------------------------------|-|

Coda
-------------------------|--------------------|----||-------------------------|
-------------------------|--------------------|----||-------------------------|
-------------------------|--------------------|----||-------------------------|
-10----(10)--------------|8-------------------|----||-------------------------|
--8----(-8)--------------|6-------------------|7---||-------------------------|
-------------------------|--------------------|5---||-------------------------|
       ////              ////
      tremelo pick
Tap to rate this tab
# A B C D E F G H I J K L M N O P Q R S T U V W X Y Z