Song name
# A B C D E F G H I J K L M N O P Q R S T U V W X Y Z

Iron Maiden - Fortunes Of War tab

This is Fortunes of War by Iron Maiden
Tabbed by: Evilized

The intro is played on bass but you can play it on guitar.

e|-------------------------------------------------------------------------|
B|-------------------------------------------------------------------------|
G|----------------------7-7-7----4-4-4----5-5-5----7-7-7-------------------|
D|---2-2-2----5-5-5----7-7-7-7--4-4-4-4--5-5-5-5--7-7-7-7--2-2-2----2-2-2--|
A|--2-2-2-2--5-5-5-5--5--------2--------4--------5--------2-2-2-2--2-2-2-2-|
E|-0--------3--------------------------------------------0--------0--------|

this just goes on but after 1.time 2nd guitar comes in:


e|-------------7---------------------------------------------------------|
B|---787----810-1087-781087-----7--7---787------787-------7---7---7---7--|
G|--9----97----------------9--79-97-9-9---97--79---97--9-9-9-9-9-9-9-9---|
D|------------------------------------------------------9---9---9---9----|
A|-----------------------------------------------------------------------|
E|-----------------------------------------------------------------------|

This is it. Hope you'll enjoy. Knock yourself out!
Tap to rate this tab
# A B C D E F G H I J K L M N O P Q R S T U V W X Y Z