Song name
# A B C D E F G H I J K L M N O P Q R S T U V W X Y Z

Iron Maiden - Wildest Dream tab

Band:  (iron maiden)
Album: (dance of death)
Song:  (wildest dreams)

.  - palm mute           /  - slide up to
\  - slide down to       ~  - vibrato
h  - hammer on           b  - Bend
p  - pull off            Suffixes for bend
t  - tap                 f  - full bend    h - half bend
ph - pinched harmonic    q  - quarter bend t - tap bend
*  - see comment         ^  - Hold bend    r release bend
x  - Stuccatto           ~  - vibrato bend
,  - slight palm mute    () - ghost note, sustained note
"  - tremolo note        <> - Trill

Tunning E A D G B E

(adrian smith)
|-------------------------------------------------------------------|
|-------------------------------------------------------------------|
|-------------------------------------------------------------------|
|--6-7-6-7-9-7-7-6-6-7-4-6-7-7--------------------------------------|
|--7-7-7-7-7-7-7-7-7-7-5-5-5-5--------------------------------------|
|--0-0-0-0-0-0-0-0-0-0-0-0-0-0--------------------------------------|

(adrian,dave)
|-------------------------------------------------------------------|
|-------------------------------------------------------------------|
|-------------------------------------------------------------1-----|
|-3-3-3-3-5-5-5-5--5-3-2-0----5-3-2-0-----3-3-3-3-3-3-3--5-5--2-----|
|-3-3-3-3-5-5-5-5-------------------------3-3-3-3-3-3-3--5-5--2-----|
|-1-1-1-1-3-3-3-3----------3--------------1-1-1-1-1-1-1--3-3--0-----|

(janick)
|-------------------------------------------------------------------|
|-------------------------------------------------------------------|
|----------------------------12-10-9-------12-10-9------------------|
|10-10-10-10--12-12-12-12------------12------------12--10--12-12--9-|
|-8-8--8---8--10-10-10-10---------------10-------------8---10-10--7-|
|-----------------------------------------------------------------0-|

(chorus,dave,janick,adrian)
|-------------------------------------------------------------------|
|-------------------------------------------------------------------|
|-6-7-6-7---10-9---12--10---6-7-6-7---------------------------------|
|-7-7-7-7---10-10--10--10---7-7-7-7--5------------------------------|
|-0-0-0-0---0--0---0---0-------------3------------------------------|
|-------------------------------------------------------------------|

(interlude,adrian,dave,janick)
|-------------------------------------------------------------------|
|-------------------------------------------------------------------|
|--7-6--------------------------------------------------------------|
|-------9-7-5-4-7-5-4-----------------------------------------------|
|----------------------7-5-4~~~-------------------------------------|
|-------------------------------------------------------------------|

(rythm for solo)
|-------------------------------------------------------------------|
|-------------------------------------------------------------------|
|-------------------------------------------------------------------|
|-4-4-4-4-4-4-4-4-4-4-4-4-4-4---2-----------------------------------|
|-2-2-2-2-2-2-2-2-2-2-2-2-2-2---0-----------------------------------|
|-----------------------------------4-2-0---------------------------|

(solo,adrian smith)
-------------------------------7-9-10-9-10-12-10-9-------------------|
-10b(slow-release)r10b~~~~~10----------------------10p9--------------|
--------------------------------------------------------11-9---------|
--------------------------------------------------------------7~~~~--|
---------------------------------------------------------------------|
---------------------------------------------------------------------|
wah pedal on for the solo

--------7------------------------------------------------------------|
-----7----7------7-------------------9----7--------------------------|
-9b----------10-----10-9-7-10-9-7----9----7-----7--------------------|
----------------------------------9-----9----9-----9-7-----9-----7---|
--------------------------------------------------------9-----9------|
---------------------------------------------------------------------|

--------------------------------------------------------------------|
--------------------------------------------------------------------|
--------------------------------------------------------------------|
--------------------------------------------------------------------|
-9-8-7-5-(7)pinch harmonic------------------------------------------|
--------------------------------------------------------------------|

--------------------------------------------------------------------|
-0-7-8-0-7-8--0-8-10-0-8-10--0-10-12-0-10-12--0-12-14-0-12-14--0-14-|15
--------------------------------------------------------------------|
--------------------------------------------------------------------|
--------------------------------------------------------------------|
--------------------------------------------------------------------|

-----------------------------------17b-(14)dive bar-----------------|
-0-14-15--0-15-17-0-15-17--17b~~~~~---------------------------------|
--------------------------------------------------------------------|
--------------------------------------------------------------------|
--------------------------------------------------------------------|
--------------------------------------------------------------------|

------------------------------------------------------------------------|
-15p14-----15p14-----14-------------------------------------------------|
-------16--------16------16-14----14-----------------------------14/(16-|
-------------------------------16-----16-15-14\12----14-12-14-12--------|
--------------------------------------------------14--------------------|
------------------------------------------------------------------------|

(dave,janick)
--------------------------------------------------------------------|
--------------------------------------------------------------------|
--------------------------------------------------------------------|
--5---7---9---5---7---9---------------------------------------------|
--3---5---7---3---5---7---------------------------------------------|
--------------------------------------------------------------------|

(solo2,adrian)
---------------------------------------------------------------------|
-9-10-12-13-12-10-(9)ph(with-wah-pedal)9-10-12-13-15-13h15p13-12~~~--|
---------------------------------------------------------------------|
---------------------------------------------------------------------|
---------------------------------------------------------------------|
---------------------------------------------------------------------|

---------------------------------------------------------------------|
--(12)ph(do-a-pinch-harmonic-then-keep-the-vibrato-going-till-you----|
---------here-feedback)----------------------------------------------|
---------------------------------------------------------------------|
---------------------------------------------------------------------|
---------------------------------------------------------------------|
repeat chorus after solo and end on this

---------------------------------------------------------------------|
---------------------------------------------------------------------|
---7-6---------------------------------------------------------------|
--------9-7-5-4-7-5-4------------------4-----------------------------|
-----------------------7-5-4-----------2-----------------------------|
---------------------------------------------------------------------|
Tap to rate this tab
# A B C D E F G H I J K L M N O P Q R S T U V W X Y Z