Guitaretab - guitar tabs
Song name
# A B C D E F G H I J K L M N O P Q R S T U V W X Y Z

Iron Maiden - Sea Of Madness tab

#----------------------------------PLEASE NOTE---------------------------------#
#This file is the author's own work and represents their interpretation of the #
#song. You may only use this file for private study, scholarship, or research. #
#------------------------------------------------------------------------------##

                                 SEA OF MADNESS
                           As recorded by Iron Maiden
                     (From the 1986 Album SOWEWHERE IN TIME)

Words and Music by Adrian Smith
Transcribed by The Beholder

Gtr I (E A D G B E) - 'Untitled'
Gtr II (E A D G B E) - 'Untitled'
Gtr III (E A D G B E) - 'Untitled'
Gtr IV (E A D G B E) - 'Untitled'

 Intro
  Q=140
  E5
 4/4
  Gtr I
  E E S S E S S S S S S E   S S S S S S E S S S S S S E
|-------------------------|-----------------------------|
|-------------------------|-----------------------------|
|-------------------------|-----------------------------|
|---------7-------------7-|-------------7---------------|
|-------5-7-4h7-7-7-7p4-7-|-4h7-7-7-7p3-7-------------5-|
|-0-0-7-------------------|---------------0-0-0-0-5h7---|
|
| Gtr II
| E E Q     H               W
|-------------------------|-----------------------------|
|-------------------------|-----------------------------|
|-------------------------|-----------------------------|
|-------------------------|-----------------------------|
|-2-2---------------------|-----------------------------|
|-0-0---------------------|-----------------------------|


  E E S S E S S S S S S E   S S S S S S E S S S S S S E
|-------------------------|-------------------------------|
|-------------------------|-------------------------------|
|-------------------------|-------------------------------|
|---------7-------------7-|-------------7-----------------|
|-------5-7-4h7-7-7-7p4-7-|-4h7-7-7-7p3-7-------------5---|
|-0-0-7-------------------|---------------0-0-0-0-5h7-----|
|
| E E Q     H               W
|-------------------------|-------------------------------|
|-------------------------|-------------------------------|
|-------------------------|-------------------------------|
|-------------------------|-------------------------------|
|-2-2---------------------|-------------------------------|
|-0-0---------------------|-------------------------------|


    N.C.
    Gtrs I, II
    E S S S S E S S S S S S E   S S S S S S E S S S S S S E  5x
||----------------------------|------------------------------||
||o---------------------------|-----------------------------o||
||----------------------------|------------------------------||
||----------------------------|------------------------------||
||o-------7p5-7-4h7-7-7-7p4-7-|-4h7-7-7-7p3-7-------------5-o||
||--0-0-0---------------------|---------------0-0-0-0-5h7----||


  N.C.
                              PM            ~
  E S S S S E S S S S S S E   E a E E E E E Q
|---------------------------|------------------||
|---------------------------|------------------||
|---------------------------|------------------||
|---------------------------|------------------||
|-------7p5-7-4h7-7-7-7p4-7-|---5h7-5----------||
|-0-0-0---------------------|-0-------7-6-5-3--||


   Verse
    N.C.
    E S S S S E S S S S S S E   S S S S S S E S S S S S S E
||----------------------------|-----------------------------|
||o---------------------------|-----------------------------|
||----------------------------|-----------------------------|
||----------------------------|-----------------------------|
||o-------7p5-7-4h7-7-7-7p4-7-|-4h7-7-7-7p3-7-------------5-|
||--0-0-0---------------------|---------------0-0-0-0-5h7---|


  E S S S S E S S S S S S E   S S S S S S E S S S S S S E
|---------------------------|------------------------------|
|---------------------------|------------------------------|
|---------------------------|------------------------------|
|---------------------------|------------------------------|
|-------7p5-7-4h7-7-7-7p4-7-|-4h7-7-7-7p3-7-------------5--|
|-0-0-0---------------------|---------------0-0-0-0-5h7----|


  N.C.
  E S S S S E S S S S S S E   S S S S S S E S S S S S S E
|---------------------------|-----------------------------|
|---------------------------|-----------------------------|
|---------------------------|-----------------------------|
|---------------------------|-----------------------------|
|-------7p5-7-4h7-7-7-7p4-7-|-4h7-7-7-7p3-7-------------5-|
|-0-0-0---------------------|---------------0-0-0-0-5h7---|


                              PM            ~
  E S S S S E S S S S S S E   E a E E E E E Q
|---------------------------|--------------------||
|---------------------------|--------------------||
|---------------------------|--------------------||
|---------------------------|--------------------||
|-------7p5-7-4h7-7-7-7p4-7-|---5h7-5------------||
|-0-0-0---------------------|-0-------7-6-5-3----||


 Pre-Chorus
  E5           F        F        G
       PM  PM|            PM  PM|
  Q  E E E E E E   +Q   E E E E E  E
|----------------|-------------------|
|----------------|-------------------|
|----------------|-------------------|
|-9--9---9-----7-|-(7)--9---9------9-|
|-7--7---7-----8-|-(8)--8---8-----10-|
|-0----0---0-0---|--------0---0-0----|


                    F       F5             E5
           PM   PM|
   +Q    E E  E E E E   +E   Q   E  E  E E E
|---------------------|----------------------|
|---------------------|----------------------|
|---------------------|----------------------|
|--(9)---9----9-----7-|-(7)-10--10-10-10---9-|
|-(10)--10---10-----8-|-(8)--8---8--8--8---7-|
|----------0----0-0---|--------------------0-|


  E5             F        F        G
         PM  PM|            PM  PM|
  +Q   E E E E E E   +Q   E E E E E  E
|------------------|-------------------|
|------------------|-------------------|
|------------------|-------------------|
|-(9)--9---9-----7-|-(7)--9---9------9-|
|-(7)--7---7-----8-|-(8)--8---8-----10-|
|-(0)----0---0-0---|--------0---0-0----|


                    F         Em       A5
           PM   PM|                  PM
   +Q    E E  E E E E   +Q.   E +Q   E E
|---------------------|------------------||
|---------------------|------------------||
|---------------------|----------------2-||
|--(9)---9----9-----7-|-(7)---5-(5)----2-||
|-(10)--10---10-----8-|-(8)---7-(7)----0-||
|----------0----0-0---|--------------0---||


 Chorus
  A5                 F5                     G5
         PM----|   PM           PM----|   PM
  +Q   E S S S S E E E   +Q   E S S S S E E E
|----------------------|----------------------|
|--------------------6-|-(6)--6---------6---8-|
|-(2)--2---------2---5-|-(5)--5---------5---7-|
|-(2)--2---------2---3-|-(3)--3---------3---5-|
|-(0)----0-0-0-0---0---|--------0-0-0-0---0---|
|----------------------|----------------------|


                     E5
         PM----|   PM                PM
  +Q   E S S S S E E E   +Q   Q  E E E E
|----------------------|-----------------|
|-(8)--8---------8-----|-----------------|
|-(7)--7---------7---9-|-(9)--9--9-9---9-|
|-(5)--5---------5---9-|-(9)--9--9-9---9-|
|--------0-0-0-0---0-7-|-(7)--7--7-7---7-|
|----------------------|-------------0---|


  E5             F5                     G5
  Gtr I
         PM|   PM              PM|    PM
  +Q   E E E E E  E    +Q    E E E  E E  E
|-------------------|----------------------|
|-------------------|----------------------|
|-(9)--9-----9---10-|-(10)--10-----10---12-|
|-(9)--9-----9---10-|-(10)--10-----10---12-|
|-(7)--7-----7----8-|--(8)---8-8-8--8-8-10-|
|--------0-0---0----|----------------------|
|
| Gtr II
|        PM|   PM              PM|    PM
| +Q   E E E E E  E    +Q    E E E  E E  E
|-------------------|----------------------|
|-------------------|----------------------|
|-(9)--9-----9---10-|-(10)--10-----10---12-|
|-(9)--9-----9---10-|-(10)--10-----10---12-|
|-(7)--7-----7----8-|--(8)---8-8-8--8-8-10-|
|--------0-0---0----|----------------------|


                                                          A5
                                  ~~~~~~~~~~~~~~~~~~~
   +E   E  E  E  +E   E  E  E     Q.     +E     +Q.       E
|-----------------------------|-----------------------------|
|------12----13-(13)-12-------|-<12>---(<12>)-(<12>)--------|
|-(12)----12------------12----|-<12>---(<12>)-(<12>)--------|
|-(12)---------------------12-|-<12>---(<12>)-(<12>)------2-|
|-(10)------------------------|---------------------------0-|
|-----------------------------|-----------------------------|
|
|             PM|        PM                      PM--|
|  +Q      E  E   E   E  E  E    +H              E    E E E
|-----------------------------|-----------------------------|
|-----------------------------|-----------------------------|
|-(12)----12---------12----12-|-(12)------------------------|
|-(12)----12---------12----12-|-(12)----------------------2-|
|-(10)----10-10--10--10-10-10-|-(10)------------10---10---0-|
|-----------------------------|-----------------------------|


  A5                 F5                     G5
  Gtrs I, II
         PM----|   PM           PM----|   PM
  +Q   E S S S S E E E   +Q   E S S S S E E E
|----------------------|----------------------|
|--------------------6-|-(6)--6---------6---8-|
|------2---------2---5-|-(5)--5---------5---7-|
|-(2)--2---------2---3-|-(3)--3---------3---5-|
|-(0)----0-0-0-0---0---|--------0-0-0-0---0---|
|----------------------|----------------------|


                     E5
         PM----|   PM                PM
  +Q   E S S S S E E E   +Q   Q  E E E E
|----------------------|-----------------|
|-(8)--8---------8-----|-----------------|
|-(7)--7---------7---9-|-(9)--9--9-9---9-|
|-(5)--5---------5---9-|-(9)--9--9-9---9-|
|--------0-0-0-0---0-7-|-(7)--7--7-7---7-|
|----------------------|-------------0---|


  E5             F5                     G5
  Gtr I
         PM|   PM              PM|    PM
  +Q   E E E E E  E    +Q    E E E  E E  E
|-------------------|----------------------|
|-------------------|----------------------|
|-(9)--9-----9---10-|-(10)--10-----10---12-|
|-(9)--9-----9---10-|-(10)--10-----10---12-|
|-(7)--7-----7----8-|--(8)---8-8-8--8-8-10-|
|--------0-0---0----|----------------------|
|
| Gtr II
|        PM|   PM              PM|    PM
| +Q   E E E E E  E    +Q    E E E  E E  E
|-------------------|----------------------|
|-------------------|----------------------|
|-(9)--9-----9---10-|-(10)--10-----10---12-|
|-(9)--9-----9---10-|-(10)--10-----10---12-|
|-(7)--7-----7----8-|--(8)---8-8-8--8-8-10-|
|--------0-0---0----|----------------------|


                                1.
                                  ~~~~~~~~~~~~~~~~~~~  PM|
   +E   E  E  E  +E   E  E  E     Q.     +E     +Q.    S S
|-----------------------------|----------------------------|
|------12----13-(13)-12-------|-<12>---(<12>)-(<12>)-------|
|-(12)----12------------12----|-<12>---(<12>)-(<12>)-------|
|-(12)---------------------12-|-<12>---(<12>)-(<12>)-------|
|-(10)------------------------|------------------------0-0-|
|-----------------------------|----------------------------|
|
|             PM|        PM                            PM|
|  +Q      E  E   E   E  E  E    +H              Q.    S S
|-----------------------------|----------------------------|
|-----------------------------|----------------------------|
|-(12)----12---------12----12-|-(12)------------12---------|
|-(12)----12---------12----12-|-(12)------------12---------|
|-(10)----10-10--10--10-10-10-|-(10)------------10-----0-0-|
|-----------------------------|----------------------------|


  N.C.
  Gtrs I, II
  E S S S S E S S S S S S E   S S S S S S E S S S S S S E
|---------------------------|-----------------------------|
|---------------------------|-----------------------------|
|---------------------------|-----------------------------|
|-------7p5-7-4h7-7-7-7p4-7-|-4h7-7-7-7-3h7-------------5-|
|-0-0-0---------------------|---------------0-0-0-0-5h7---|
|---------------------------|-----------------------------|


  E S S S S E S S S S S S E   S S S S S S E S S S S S S E
|---------------------------|-------------------------------|
|---------------------------|-------------------------------|
|---------------------------|-------------------------------|
|-------7p5-7-4h7-7-7-7p4-7-|-4h7-7-7-7-3h7-------------5---|
|-0-0-0---------------------|---------------0-0-0-0-5h7-----|
|---------------------------|-------------------------------|


  N.C.
  E S S S S E S S S S S S E   S S S S S S E S S S S S S E
|---------------------------|-----------------------------|
|---------------------------|-----------------------------|
|---------------------------|-----------------------------|
|-------7p5-7-4h7-7-7-7p4-7-|-4h7-7-7-7-3h7-------------5-|
|-0-0-0---------------------|---------------0-0-0-0-5h7---|
|---------------------------|-----------------------------|


                              PM            ~
  E S S S S E S S S S S S E   E a E E E E E Q
|---------------------------|---------------------||
|---------------------------|--------------------o||
|---------------------------|---------------------||
|-------7p5-7-4h7-7-7-7p4-7-|---5h7-5-------------||
|-0-0-0---------------------|-0-------7-6-5-3----o||
|---------------------------|---------------------||


                 Interlude
  2.
  G5              Bm                                 D
  Gtr I
                       ~  PM--|      ~~~   PM--|      ~~~
   H..       E    +Q   Q  E E E E   +H     E E E E   +H     E S S E  E
|--------------||-----------------|----------------|-------------------|
|--------------||-----------------|----------------|-------------------|
|-12-----------||-----------------|----------------|-------------------|
|-12-----------||-----------------|--------------4-|-(4)----4h5p4-5----|
|-10---------2-||-(2)--2--2-4-5-2-|-(2)----2-4-5---|-----------------7-|
|--------------||-----------------|----------------|-------------------|
|
| Gtr II
|                      ~  PM--|      ~~~              ~~~
|  H..       E    +Q   Q  E E E E   +H     E E E E   +H     E S S E  E
|--------------||-----------------|----------------|-------------------|
|--------------||-----------------|----------------|-------------------|
|-12-----------||-----------------|----------------|-------------------|
|-12-----------||-------------4---|------------4-7-|-(7)----7h9p7-9----|
|-10---------5-||-(5)--5--5-7---5-|-(5)----5-7-----|----------------10-|
|--------------||-----------------|----------------|-------------------|


  A                        Bm                G              D5
                                ~             ~~~       PM|
   +E  E E  E  +E  E E E   +Q   Q  E E E E   +H     +E  E E S S
|------------------------|-----------------|--------------------|
|------------------------|-----------------|--------------------|
|------------------------|-----------------|--------------------|
|------4-----------------|-----------------|----------------4-4-|
|--(7)---5--7--(7)-0-0-2-|-(2)--2--2-4-5-2-|-(2)----(2)-4-5-----|
|------------------------|-----------------|--------------------|
|
|                           ~~~~~~            ~~~       PM|
|  +E  E E  E  +E  E E E   +Q   Q  E E E E   +H     +E  E E E
|------------------------|-----------------|--------------------|
|------------------------|-----------------|--------------------|
|------------------------|-----------------|----------------7---|
|------7-----------------|-------------4---|--------------4-7---|
|-(10)---9-10-(10)-5-4-5-|-(5)--5--5-7---5-|-(5)----(5)-7---5---|
|------------------------|-----------------|--------------------|


                  A5                                        B5
                                                     ~~~
  +S  S S S S S S S S S S S S S  E     +E   S S E E +H
|-----------------------------------|--------------------------|
|-----------------------------------|--------------------------|
|-------------------------------[6]-|-([6])-7-6----------------|
|-(4)-4-5-5-5-7-7-7-7-9-9-9-9-------|-----------7--------------|
|-----------------------------------|-------------7-(7)--------|
|-----------------------------------|--------------------------|
|
|               PM--|       PM                    PM
| +Q        E   E   E   E   E    E     +Q       E E  E  E E E
|-----------------------------------|--------------------------|
|-----------------------------------|--------------------------|
|-(7)-------7-----------7--------2--|--(2)------2-----------4--|
|-(7)-------7-----------7--------2--|--(2)------2-----------4--|
|-(5)-------5---5---5-------5----0--|--(0)------0-0--4--5-4-2--|
|-----------------------------------|--------------------------|


 Guitar Solo 1
      B5          A5        A5G5                       A5  D5
                            ~                   ~~~~~~~
   S  S S S S S S S S S S S Q      S  S S S S S E +Q     E  E
|-------------------------------|--------------------------14-|
|-----2h3p2-------2h3p2---------|-----2-3-2---2---------------|
|-----------4p2h4-------4p2h4---|-----------4---4-(4)/--------|
|-------------------------------|-----------------------------|
|-------------------------------|-----------------------------|
|-------------------------------|-----------------------------|
|
|               PM--|                           PM|
| +Q        E   E   E   E   E E   +Q        E   E  E   Q    E
|-------------------------------|-----------------------------|
|-------------------------------|-----------------------------|
|-(4)-------4-----------4---2---|---------------------------7-|
|-(4)-------4-----------4---2-5-|-(5)-------5----------7----7-|
|-(2)-------2---2---2---2---0-5-|-(5)-------5----------7----5-|
|-----------------------------3-|-(3)-------3---3--3---5------|


                                                  A5
                            |------5------|
   S   S  S  S  S  S  S  S  S  S  S    S  S  S  S  S  S
|--------------------------------------------------------|
|-15--17-14-15-17-14-15-17-15-14-15---14-------14--------|
|----------------------------------------16-14----16-14--|
|--------------------------------------------------------|
|--------------------------------------------------------|
|--------------------------------------------------------|
|
|                     PM---|
| +Q            E     E     E       E        E     E
|--------------------------------------------------------|
|--------------------------------------------------------|
|-(7)-----------7-------------------7--------------2-----|
|-(7)-----------7-------------------7--------------2-----|
|-(5)-----------5-----5-----5-------5--------------0-----|
|--------------------------------------------------------|


  A5                               B5
   S   S  S  S  S  S  S  S  Q.      E
|-------------------------------------|
|-------------------------------------|
|-12--16p14p12S11h12p11h12------------|
|--------------------------11---------|
|----------------------------------12-|
|-------------------------------------|
|
|                     PM
| +Q            E     E     E  E E  E
|-------------------------------------|
|-------------------------------------|
|-(2)-----------2-------------------4-|
|-(2)-----------2-------------------4-|
|-(0)-----------0-----0-----5--4-0--2-|
|-------------------------------------|


                                       A5    G5                                  A5 D5
   S   S  S  S  S  S  S  S  S  S  S  S  S  S  S  S    S   S  S  S  S  S  S  S  H
|--------------------------------------------------|-----------------------------------|
|--------------------------------------------------|-----------------------------------|
|--------------------------------------11-------11-|-12-----11-12-14-11-12-14S16-------|
|-----------11-12----11-12-14-11-12-14----12-14----|-----14----------------------------|
|-14p=12-14-------14-------------------------------|-----------------------------------|
|--------------------------------------------------|-----------------------------------|
|
|                     PM---|                                             PM---|
| +Q            E     E     E     E     E     E      +Q            E     E     E Q  E
|--------------------------------------------------|-----------------------------------|
|--------------------------------------------------|-----------------------------------|
|-(4)-----------4-----------------4-----2----------|--------------------------------7--|
|-(4)-----------4-----------------4-----2-----5----|-(5)-----------5-------------7--7--|
|-(2)-----------2-----2-----2-----2-----0-----5----|-(5)-----------5-------------7--5--|
|---------------------------------------------3----|-(3)-----------3-----3-----3-5-----|


  D5                     A5
       ~~~~~
   E   Q.        E  E  E  E
|-----17b19-----17-15-14-15-|
|---------------------------|
|---------------------------|
|--x------------------------|
|---------------------------|
|---------------------------|
|
|             PM|
| +Q        E E  E  Q     E
|---------------------------|
|---------------------------|
|-(7)---------------7-----2-|
|-(7)---------------7-----2-|
|-(5)-------5-5--5--5-----0-|
|---------------------------|
|
| Gtrs III, IV
|  W
|---------------------------|
|---------------------------|
|---------------------------|
|---------------------------|
|---------------------------|
|---------------------------|


                                         Bridge
                                 C#5
                                            ~~~~
   E   S  S  E  E  E      +E   E  E        +W
|-14h=15p14----------------------------||--------------------|
|-----------17-15-17pb19r(17)-15-19b21-||-(19)---------------|
|--------------------------------------||--------------------|
|--------------------------------------||--------------------|
|--------------------------------------||--------------------|
|--------------------------------------||--------------------|
|
|               PM
| +Q         E  E  E       Q      E        +W
|--------------------------------------||--------------------|
|--------------------------------------||--------------------|
|-(2)--------2-----2-------2------6----||--(6)---------------|
|-(2)--------2-----2-------2------6----||--(6)---------------|
|-(0)--------0--0--0-------0------4----||--(4)---------------|
|--------------------------------------||--------------------|
|
|  W                                        E  E E E E E E E
|--------------------------------------||------------0-------|
|--------------------------------------||----------0---4-----|
|--------------------------------------||--------6-------4---|
|--------------------------------------||------6-----------6-|
|--------------------------------------||---4----------------|
|--------------------------------------||--------------------|


  Amaj9             Bsus4                                   C#m7
  Gtr III
  PM----|                                               PM--------|
  E E E E E E E E   E E E E E E  E E   +Q     Q    H        E E E E E E E E
|-----------------|----------------0-|-(0)----------------|---------0--------|
|---------0-------|------------------|--4-----0-----------|-----------0------|
|-----------6---4-|-----4-----4------|-----4-(4)-----4----|-------------6----|
|-------------6-4-|-4-4---4-4----4---|-------------4----6-|---------------6--|
|-0-0-0-0---------|------------------|------------------4-|-4-4-4-4----------|
|-----------------|------------------|--------------------|------------------|
|                                       E  E +Q    E Q  E
|
| Gtr IV
| PM----|   PM|       PM--|                             PM--------|
| E E E E E E E E   E E E E E Q.       +E  Q     Q   Q  E   E E E E Q   E E
|-----------------|------------------|-----0--------------|------------------|
|-----------------|------------------|-----------0--------|---------0--------|
|---------4-----4-|-----------4------|-(4)-----------4----|------------------|
|---------6-----4-|------------------|--------------------|------------------|
|-0-0-0-0-0-0-0-2-|-2-2-2-2-2--------|------------------4-|-4-4-4-4-----4-4--|
|-----------------|------------------|--------------------|------------------|


  Amaj9               Bsus4                              C#m7
                                                         Gtr I
                      PM|   PM                                      ~~
  +Q    Q   E E E E   E E E E E Q   E   +E  Q  Q  Q  E   E a E E E  H
|-----------0-------|---------------0-|-(0)------------|-------9---11-------|
|-------------0-----|-----------------|----------------|---x-9---9----------|
|-------6-------4---|-----4-----4-----|-----4-----4----|--------------------|
|-(6)-------------4-|---------4-------|--------4-------|--------------------|
|-------------------|-2-2---2---------|--------------4-|--------------------|
|-------------------|-----------------|----------------|--------------------|
|
|  PM-----|       PM----------------|                    PM------|
|  E  E E E E E E E   E E E E E E E E    E  Q  Q  Q  E   E   E E E  E E E E
|-------------------|-----------------|-----0----------|------------0-------|
|-------------------|-----------------|----------------|------------0-------|
|-----------4-------|-----------------|--------4-------|--------------6-----|
|-------------6-4---|-----------------|-----------4----|----------------6---|
|--0--0-0-0-------7-|-0-2-2-2-2-2-2-2-|--------------4-|-4---4-4-4--------4-|
|-------------------|-----------------|----------------|--------------------|


  Amaj9                    B5
                                    \2/    \2/   \2/  \2/
    ~~~~
                                           |----3-----|
   +E   E E  E E  e  Q      +Q     +Q     +Q     Q    Q
|-(11)-12----------------|----------------------------------|
|-----------12------12---|-(12)---(12)---(12)----9----------|
|----------------11------|---------------------------11-----|
|------------------------|----------------------------------|
|------------------------|----------------------------------|
|------------------------|----------------------------------|
|
|   E   E Q    E  E  E E     E  E   Q      E   Q          E
|-----------------0------|----------------------------------|
|--------------0--0------|----------------------------------|
|---------6----6-------6-|----------4----------4------------|
|---6---6------------6---|----------4------4--------------4-|
|------------------------|---2--2---------------------------|
|------------------------|----------------------------------|


      Bsus4              C#m7
        ~~~~~~
   |-3--|                            |-3-|
   Q    E +H.            +Q    E Q   S S S  E  E
|----------------------|--------------------------|
|----------------------|--------------------------|
|--9p===8-(8)----------|-(8)-----9---8h9p8--------|
|----------------------|-------------------11-----|
|----------------------|----------------------11--|
|----------------------|--------------------------|
|
|                  PM------------|
| +E  Q       Q.   E E    E  E E E E Q.
|-----0-------0--------|-------------0------------|
|-----0-------0--------|-------------0------------|
|-----4-------4--------|-------------6------------|
|-(4)------------------|-------------6------------|
|------------------2-2-|--4--4-4-4-4--------------|
|----------------------|--------------------------|

[ Tab from: http://www.guitaretab.com/i/iron-maiden/71774.html ]
  Amaj9              Bsus4
                                          |--3---|  |--3--|  |--3--|
  E  E E E E E Q     +H..            E    E   E  E  E  E  E  E  E  E  Q
|------------------|-------------------|-----------------------------14---|
|------------------|-------------------|--------------------14h16h17------|
|------8h9p8-------|-------------------|-----------13h14h16---------------|
|-9-11-------9-----|-------------------|-13h=14h16------------------------|
|--------------9---|-(9)---------------|----------------------------------|
|------------------|-------------------|----------------------------------|
|
| PM-----|
| E  E E E E E E E    E   E E E E Q  E   +H..                           E
|----------0-------|-----------------0-|-(0)------------------------------|
|----------0-------|-----------------0-|-(0)------------------------------|
|------------4-----|--------------4----|----------------------------------|
|--------------6-4-|-------------------|--------------------------------6-|
|-0--0-0-0---------|--2---2-2-2-2------|--------------------------------4-|
|------------------|-------------------|----------------------------------|


  C#m7                Amaj9           B5
  Gtr III
   PM-------|
   E  E E E E E E E   +H        Q.    E
|-------------0-----|-----------0-------|
|---------------0---|-------------------|
|-----------------6-|-(6)---------------|
|-------------------|-----------------4-|
|--4--4-4-4-4-------|-----------------2-|
|-------------------|-------------------|
|
| +H        E Q   E   +E  E E E E  Q  E
|-------------0-----|--------------0----|
|-------------0-----|-------------------|
|-------------6-----|-------6-----------|
|-(6)-------------6-|-(6)-6---7-6-------|
|-(4)-------------0-|-(0)---------------|
|-------------------|-------------------|


                      Bsus4
  +E  E E E Q   E E   +E.   S +S  E. E Q  E
|-----------------0-|-(0)------------0------|
|-----------------0-|-(0)------------0------|
|-------4---4-------|-------4-(4)------4----|
|-(4)-----4---------|-------------4-------6-|
|-(2)-2-------------|---------------------4-|
|-------------------|-----------------------|
|
|  E  E E E E Q   E   +E  E    Q     E Q  E
|-------------------|-----------------------|
|-------------0-----|------------------0----|
|-------4---4-------|----------4------------|
|-----4---4-------4-|-(4)-4----------4----6-|
|-------------------|---------------------4-|
|-------------------|-----------------------|


  C#m7                                    B5                            A5C#5
                                          Gtr I
                                          <
                                          PM----------------------------|
  +E  E Q   E E E E   +H        E E Q     E E E E E E E E   E E E E E E E E
|-----------0-------|-----------0-------|-----------------|------------------|
|-------------0-----|-----------0-------|-----------------|------------------|
|---------------6---|-------------6-----|-----------------|---------------6--|
|-(6)---6---------6-|-(6)-----------6---|-4-4-4-4-4-4-4-4-|-4-4-4-4-4-4-2-6--|
|-(4)-4-------------|-------------------|-2-2-2-2-2-2-2-2-|-2-2-2-2-2-2-0-4--|
|-------------------|-------------------|-----------------|------------------|
|
|                                         Gtr II
|                                         <
|     PM--|                               PM----------------------------|
| +E  E E E E Q   E   +E  E E E E Q   E   E E E E E E E E   E E E E E E E E
|-------------------|-------------0-----|-----------------|------------------|
|-------------------|-------------0-----|-----------------|------------------|
|-------------------|-------6-----4-----|-----------------|---------------6--|
|-(6)-------6-6-----|-----6---7-6-------|-4-4-4-4-4-4-4-4-|-4-4-4-4-4-4-2-6--|
|-(4)-4-4-4-------0-|-(0)---------------|-2-2-2-2-2-2-2-2-|-2-2-2-2-2-2-0-4--|
|-------------------|-------------------|-----------------|------------------|


  C#5           Amaj7               B                                  C#5
  +Q    Q  Q  E E   +E   E E E E Q  E   +Q   Q  Q  E E   +E   Q  Q  Q  E
|-------------0---|--------0-----0----|----------------|------------------|
|----------4------|------4-----4----4-|-(4)--4-------5-|-(5)--4-----0-----|
|-(6)---6---------|----------6------4-|-(4)--4--6--4---|---------6-----6--|
|-(6)-----------6-|-(6)-------------4-|-(4)--4---------|---------------6--|
|-(4)-----------0-|-(0)---------------|----------------|---------------4--|
|-----------------|-------------------|----------------|------------------|
|
| +H..          E   +H..            E   +W               +H..          E
|-----------------|-------------------|----------------|------------------|
|-----------------|-------------------|----------------|------------------|
|-(6)-------------|-------------------|----------------|------------------|
|-(6)-----------6-|-(6)-------------4-|-(4)------------|-(4)-----------6--|
|-(4)-----------0-|-(0)-------------2-|-(2)------------|-(2)-----------4--|
|-----------------|-------------------|----------------|------------------|


  C#5             Amaj7             B5                                    E5
                                            PM----------|
  +E   E E E Q  E E   +Q    Q  Q  E E   +E  E E E E E E E   E E E E E E E E
|---------------0---|-------------0---|-------------------|------------------||
|------------0------|----------0------|-------------------|------------------||
|-(6)----6----------|-------6-------4-|-(4)---------------|------------------||
|-(6)--6---6------6-|-(6)-----------4-|-(4)-4-4-4-4-4-4-4-|-4-4-4-4-4-4-4----||
|-(4)-------------0-|-(0)-----------2-|-(2)-2-2-2-2-2-2-2-|-2-2-2-2-2-2-2-2--||
|-------------------|-----------------|-------------------|---------------0--||
|
|                                           PM----------|
| +H..            E   +H..          E   +E  E E E E E E E   E E E E E E E E
|-------------------|-----------------|-------------------|------------------||
|-------------------|-----------------|-------------------|------------------||
|-------------------|---------------4-|-(4)---------------|------------------||
|-(6)-------------6-|-(6)-----------4-|-(4)-4-4-4-4-4-4-4-|-4-4-4-4-4-4-4----||
|-(4)-------------0-|-(0)-----------2-|-(2)-2-2-2-2-2-2-2-|-2-2-2-2-2-2-2-2--||
|-------------------|-----------------|-------------------|---------------0--||


    N.C.
    Gtrs I, II
    E S S S S E S S S S S S E   S S S S S S E S S S S S S E  3x
||----------------------------|------------------------------||
||o---------------------------|-----------------------------o||
||----------------------------|------------------------------||
||----------------------------|------------------------------||
||o-------7p5-7-4h7-7-7-7p4-7-|-4h7-7-7-7p3-7-------------5-o||
||--0-0-0---------------------|---------------0-0-0-0-5h7----||


  N.C.
                              PM            ~
  E S S S S E S S S S S S E   E a E E E E E Q
|---------------------------|------------------||
|---------------------------|------------------||
|---------------------------|------------------||
|---------------------------|------------------||
|-------7p5-7-4h7-7-7-7p4-7-|---5h7-5----------||
|-0-0-0---------------------|-0-------7-6-5-3--||


 Repeat Verse 1
  N.C.
  E S S S S E S S S S S S E   S S S S S S E S S S S S S E
|---------------------------|-----------------------------|
|---------------------------|-----------------------------|
|---------------------------|-----------------------------|
|---------------------------|-----------------------------|
|-------7p5-7-4h7-7-7-7p4-7-|-4h7-7-7-7p3-7-------------5-|
|-0-0-0---------------------|---------------0-0-0-0-5h7---|


  E S S S S E S S S S S S E   S S S S S S E S S S S S S E
|---------------------------|-------------------------------|
|---------------------------|-------------------------------|
|---------------------------|-------------------------------|
|---------------------------|-------------------------------|
|-------7p5-7-4h7-7-7-7p4-7-|-4h7-7-7-7p3-7-------------5---|
|-0-0-0---------------------|---------------0-0-0-0-5h7-----|


  N.C.
  E S S S S E S S S S S S E   S S S S S S E S S S S S S E
|---------------------------|-----------------------------|
|---------------------------|-----------------------------|
|---------------------------|-----------------------------|
|---------------------------|-----------------------------|
|-------7p5-7-4h7-7-7-7p4-7-|-4h7-7-7-7p3-7-------------5-|
|-0-0-0---------------------|---------------0-0-0-0-5h7---|


                              PM            ~
  E S S S S E S S S S S S E   E a E E E E E Q
|---------------------------|--------------------||
|---------------------------|--------------------||
|---------------------------|--------------------||
|---------------------------|--------------------||
|-------7p5-7-4h7-7-7-7p4-7-|---5h7-5------------||
|-0-0-0---------------------|-0-------7-6-5-3----||


 Repeat Pre-Chorus
  E5           F        F        G
       PM  PM|            PM  PM|
  Q  E E E E E E   +Q   E E E E E  E
|----------------|-------------------|
|----------------|-------------------|
|----------------|-------------------|
|-9--9---9-----7-|-(7)--9---9------9-|
|-7--7---7-----8-|-(8)--8---8-----10-|
|-0----0---0-0---|--------0---0-0----|


                    F       F5             E5
           PM   PM|
   +Q    E E  E E E E   +E   Q   E  E  E E E
|---------------------|----------------------|
|---------------------|----------------------|
|---------------------|----------------------|
|--(9)---9----9-----7-|-(7)-10--10-10-10---9-|
|-(10)--10---10-----8-|-(8)--8---8--8--8---7-|
|----------0----0-0---|--------------------0-|


  E5             F        F        G
         PM  PM|            PM  PM|
  +Q   E E E E E E   +Q   E E E E E  E
|------------------|-------------------|
|------------------|-------------------|
|------------------|-------------------|
|-(9)--9---9-----7-|-(7)--9---9------9-|
|-(7)--7---7-----8-|-(8)--8---8-----10-|
|-(0)----0---0-0---|--------0---0-0----|


                    F         Em       A5
           PM   PM|                  PM
   +Q    E E  E E E E   +Q.   E +Q   E E
|---------------------|------------------||
|---------------------|------------------||
|---------------------|----------------2-||
|--(9)---9----9-----7-|-(7)---5-(5)----2-||
|-(10)--10---10-----8-|-(8)---7-(7)----0-||
|----------0----0-0---|--------------0---||


  A5                 F5                     G5
         PM----|   PM           PM----|   PM
  +Q   E S S S S E E E   +Q   E S S S S E E E
|----------------------|----------------------|
|--------------------6-|-(6)--6---------6---8-|
|-(2)--2---------2---5-|-(5)--5---------5---7-|
|-(2)--2---------2---3-|-(3)--3---------3---5-|
|-(0)----0-0-0-0---0---|--------0-0-0-0---0---|
|----------------------|----------------------|


                     E5
         PM----|   PM                PM
  +Q   E S S S S E E E   +Q   Q  E E E E
|----------------------|-----------------|
|-(8)--8---------8-----|-----------------|
|-(7)--7---------7---9-|-(9)--9--9-9---9-|
|-(5)--5---------5---9-|-(9)--9--9-9---9-|
|--------0-0-0-0---0-7-|-(7)--7--7-7---7-|
|----------------------|-------------0---|


  E5             F5                     G5
  Gtr I
         PM|   PM              PM|    PM
  +Q   E E E E E  E    +Q    E E E  E E  E
|-------------------|----------------------|
|-------------------|----------------------|
|-(9)--9-----9---10-|-(10)--10-----10---12-|
|-(9)--9-----9---10-|-(10)--10-----10---12-|
|-(7)--7-----7----8-|--(8)---8-8-8--8-8-10-|
|--------0-0---0----|----------------------|
|
| Gtr II
|        PM|   PM              PM|    PM
| +Q   E E E E E  E    +Q    E E E  E E  E
|-------------------|----------------------|
|-------------------|----------------------|
|-(9)--9-----9---10-|-(10)--10-----10---12-|
|-(9)--9-----9---10-|-(10)--10-----10---12-|
|-(7)--7-----7----8-|--(8)---8-8-8--8-8-10-|
|--------0-0---0----|----------------------|


                                                          A5
                                  ~~~~~~~~~~~~~~~~~~~
   +E   E  E  E  +E   E  E  E     Q.     +E     +Q.       E
|-----------------------------|-----------------------------|
|------12----13-(13)-12-------|-<12>---(<12>)-(<12>)--------|
|-(12)----12------------12----|-<12>---(<12>)-(<12>)--------|
|-(12)---------------------12-|-<12>---(<12>)-(<12>)------2-|
|-(10)------------------------|---------------------------0-|
|-----------------------------|-----------------------------|
|
|             PM|        PM                      PM--|
|  +Q      E  E   E   E  E  E    +H              E    E E E
|-----------------------------|-----------------------------|
|-----------------------------|-----------------------------|
|-(12)----12---------12----12-|-(12)------------------------|
|-(12)----12---------12----12-|-(12)----------------------2-|
|-(10)----10-10--10--10-10-10-|-(10)------------10---10---0-|
|-----------------------------|-----------------------------|


 Repeat Chorus
  A5                 F5                     G5
  Gtrs I, II
         PM----|   PM           PM----|   PM
  +Q   E S S S S E E E   +Q   E S S S S E E E
|----------------------|----------------------|
|--------------------6-|-(6)--6---------6---8-|
|------2---------2---5-|-(5)--5---------5---7-|
|-(2)--2---------2---3-|-(3)--3---------3---5-|
|-(0)----0-0-0-0---0---|--------0-0-0-0---0---|
|----------------------|----------------------|


                     E5
         PM----|   PM                PM
  +Q   E S S S S E E E   +Q   Q  E E E E
|----------------------|-----------------|
|-(8)--8---------8-----|-----------------|
|-(7)--7---------7---9-|-(9)--9--9-9---9-|
|-(5)--5---------5---9-|-(9)--9--9-9---9-|
|--------0-0-0-0---0-7-|-(7)--7--7-7---7-|
|----------------------|-------------0---|


  E5             F5                     G5
  Gtr I
         PM|   PM              PM|    PM
  +Q   E E E E E  E    +Q    E E E  E E  E
|-------------------|----------------------|
|-------------------|----------------------|
|-(9)--9-----9---10-|-(10)--10-----10---12-|
|-(9)--9-----9---10-|-(10)--10-----10---12-|
|-(7)--7-----7----8-|--(8)---8-8-8--8-8-10-|
|--------0-0---0----|----------------------|
|
| Gtr II
|        PM|   PM              PM|    PM
| +Q   E E E E E  E    +Q    E E E  E E  E
|-------------------|----------------------|
|-------------------|----------------------|
|-(9)--9-----9---10-|-(10)--10-----10---12-|
|-(9)--9-----9---10-|-(10)--10-----10---12-|
|-(7)--7-----7----8-|--(8)---8-8-8--8-8-10-|
|--------0-0---0----|----------------------|


                                                       A5
                                  ~~~~~~~~~~~~~~~~~~~
   +E   E  E  E  +E   E  E  E     Q.     +E     +Q.     E
|-----------------------------|---------------------------|
|------12----13-(13)-12-------|-<12>---(<12>)-(<12>)---10-|
|-(12)----12------------12----|-<12>---(<12>)-(<12>)----9-|
|-(12)---------------------12-|-<12>---(<12>)-(<12>)----7-|
|-(10)------------------------|-------------------------0-|
|-----------------------------|---------------------------|
|
|             PM|        PM
|  +Q      E  E   E   E  E  E    +H              Q.     E
|-----------------------------|---------------------------|
|-----------------------------|------------------------10-|
|-(12)----12---------12----12-|-(12)------------12------9-|
|-(12)----12---------12----12-|-(12)------------12------7-|
|-(10)----10-10--10--10-10-10-|-(10)------------10------0-|
|-----------------------------|---------------------------|


 Outro
  A5                    F5                     G5
  Gtrs I, II
           PM----|    PM           PM----|   PM
   +Q    E S S S S  E E E   +Q   E S S S S E E E
|-------------------------|----------------------|
|-(10)--10---------10---6-|-(6)--6---------6---8-|
|--(9)---9----------9---5-|-(5)--5---------5---7-|
|--(7)---7----------7---3-|-(3)--3---------3---5-|
|--(0)-----0-0-0-0----0---|--------0-0-0-0---0---|
|-------------------------|----------------------|


                     F5           G5    A5
         PM----|   PM
  +Q   E S S S S E E E   +E  Q  E E E E  E
|----------------------|-------------------|
|-(8)--8---------8---6-|-(6)-6--6-8-8-8-10-|
|-(7)--7---------7---5-|-(5)-5--5-7-7-7--9-|
|-(5)--5---------5---3-|-(3)-3--3-5-5-5--7-|
|--------0-0-0-0---0---|-------------------|
|----------------------|-------------------|


  A5                       F5                            G5
  Gtr I
   ~~~~~         T       T          ~~~
   H             E    E  E E   +E  +Q.       +E    E E   E
|----------------------------|-----------------------------|
|----------------------------|---------------------5-------|
|--7b9==========12p===7-10p7-|-(7)r(7)-------(7)-----7b9-5-|
|----------------------------|-----------------------------|
|----------------------------|-----------------------------|
|----------------------------|-----------------------------|
|
| Gtr II
|           PM-----|     PM              PM------|   PM
|  Q      E S S  S S  E  E E   +Q      E S S  S  S E E   E
|----------------------------|-----------------------------|
|-10-----10----------10----6-|-(6)-----6-----------6-----8-|
|--9------9-----------9----5-|-(5)-----5-----------5-----7-|
|--7------7-----------7----3-|-(3)-----3-----------3-----5-|
|--0--------0-0--0-0-----0---|-----------0-0--0--0---0-----|
|----------------------------|-----------------------------|


                      F5           G5      A5
                           ~~~
  +E  Q   Q       E Q     +H       +Q    E  E
|-----------------------|------------------------|
|-----------------------|------------------------|
|-(5)-7---5-------4-----|----------------5--7b9==|
|-------------------7---|-(7)------(7)-----------|
|-----------------------|------------------------|
|-----------------------|------------------------|
|
|         PM----|   PM
| +Q    E S S S S E E E   +E  Q  E  E  E E  E
|-----------------------|------------------------|
|-(8)---8---------8---6-|-(6)-6--6--8--8-8-10----|
|-(7)---7---------7---5-|-(5)-5--5--7--7-7--9----|
|-(5)---5---------5---3-|-(3)-3--3--5--5-5--7----|
|---------0-0-0-0---0---|------------------------|
|-----------------------|------------------------|


  A5                     F5                              G5
                     T    T
  +H          +E     Q    E    +Q.        +Q        Q.
|---------------------------|------------------------------|
|---------------------------|------------------------------|
|-(7)---------(7)---12---14-|-(14)b17r===(14)r======7------|
|---------------------------|------------------------------|
|---------------------------|------------------------------|
|---------------------------|------------------------------|
|
|         PM------|    PM                  PM-----|    PM
|  Q    E S S  S  S  E E  E    +Q      E   S  S S S E  E E
|---------------------------|------------------------------|
|-10---10-----------10----6-|--(6)-----6------------6----8-|
|--9----9------------9----5-|--(5)-----5------------5----7-|
|--7----7------------7----3-|--(3)-----3------------3----5-|
|--0------0-0--0--0----0----|--------------0--0-0-0----0---|
|---------------------------|------------------------------|


                             F5            G5     A5
                             \5
   |-3--|
  +E  E E S E.     +Q.       E    +H       Q.      E
|-------------------------------|------------------------|
|-------------------------------|-----------------20b22--|
|-(7)p5h7-5---------------------|------------------------|
|-----------7------(7)-------0--|-(0)------x-------------|
|-------------------------------|----------x-------------|
|-------------------------------|------------------------|
|
|              PM------|   PM
| +Q      E    S S  S  S E E E    +E  Q  E E  E E  E
|-------------------------------|------------------------|
|-(8)-----8--------------8---6--|-(6)-6--6-8--8-8-10-----|
|-(7)-----7--------------7---5--|-(5)-5--5-7--7-7--9-----|
|-(5)-----5--------------5---3--|-(3)-3--3-5--5-5--7-----|
|--------------0-0--0--0---0----|------------------------|
|-------------------------------|------------------------|


  A5                        F5                                G5
                                         ~~~~~~~~~~~~~~~
   +Q.      H                S  S       +H          +Q.        E
|---------------------------17-19b20-|-(19)--------(19)-------19b20-|
|-(20)-----20b22---------------------|------------------------------|
|------------------------------------|------------------------------|
|------------------------------------|------------------------------|
|------------------------------------|------------------------------|
|------------------------------------|------------------------------|
|
|           PM-------|    PM                   PM-------|   PM
|   Q    E  S    S S S  E E  E          +Q   E S S   S  S E E  E
|------------------------------------|------------------------------|
|--10---10-------------10----6-------|--(6)--6------------6----8----|
|---9----9--------------9----5-------|--(5)--5------------5----7----|
|---7----7--------------7----3-------|--(3)--3------------3----5----|
|---0-------0----0-0-0----0----------|---------0-0---0--0---0-------|
|------------------------------------|------------------------------|


                                       F5                            G5             A5
                                                                 ~~
   +E   Q       E        +Q       S  S  S  S       +S   S  S  S  Q    S  S  S  S  E  E
|-(19)-19b20---19pb20r==(19)-----17----17-19b20r|=(19)p17----17--------------------------|
|-----------------------------------20----------|---------20----20---22-20-22-20---------|
|-----------------------------------------------|--------------------------------21--x---|
|-----------------------------------------------|---------------------------------x--x---|
|-----------------------------------------------|----------------------------------------|
|-----------------------------------------------|----------------------------------------|
|
|               PM-----------|    PM
|  +Q        E  S     S   S  S E  E     E          +E      Q       E  E     E     E  E
|-----------------------------------------------|----------------------------------------|
|--(8)-------8-----------------8--------6-------|--(6)-----6-------6--8-----8-----8-10---|
|--(7)-------7-----------------7--------5-------|--(5)-----5-------5--7-----7-----7--9---|
|--(5)-------5-----------------5--------3-------|--(3)-----3-------3--5-----5-----5--7---|
|---------------0-----0---0--0----0-------------|----------------------------------------|
|-----------------------------------------------|----------------------------------------|


  A5                      F5                                        G5
          ~~~
                               |-3--|            |---3---|
   E E   +H.                   E  E E E.     +S  E   E   E S    +S  +S  S
|---------------------------|--5-----------------5------------------------|
|---------------------------|-----8p5-8b10---(8)-----8p==5----------------|
|--x-7b9-(7)----------------|------------------------------7b9==(7)r(7)p5-|
|---------------------------|---------------------------------------------|
|---------------------------|---------------------------------------------|
|---------------------------|---------------------------------------------|
|
|            PM----|    PM                 PM------|       PM
|  Q      E  S S S S  E E E   +Q      E    S  S  S S   E   E         E
|---------------------------|---------------------------------------------|
|-10-----10----------10---6-|-(6)-----6----------------6-------------8----|
|--9------9-----------9---5-|-(5)-----5----------------5-------------7----|
|--7------7-----------7---3-|-(3)-----3----------------3-------------5----|
|--0---------0-0-0-0----0---|--------------0--0--0-0-------0--------------|
|---------------------------|---------------------------------------------|


  G5                          F5              G5      A5
                            ~
   E  S S S S S S +E.     S Q      E  E a E E E E E    S    +S
|-------------------------------|-------------------------------|
|-------------------------------|-------------------------------|
|--7--7-x-5---------------------|---------------5-7b9--7pb9r(7)p|
|-----------7-------------------|-----------5-7-----------------|
|-------------7-5-(5)p====3-5---|-----3-5h7---------------------|
|-------------------------------|-------------------------------|
|
|             PM------|     PM
| +Q      E   S S  S  S E   E E   +E  Q     E E E E    E
|-------------------------------|-------------------------------|
|-(8)-----8-------------8-----6-|-(6)-6-----6-8-8-8---10--------|
|-(7)-----7-------------7-----5-|-(5)-5-----5-7-7-7----9--------|
|-(5)-----5-------------5-----3-|-(3)-3-----3-5-5-5----7--------|
|-------------0-0--0--0-----0---|-------------------------------|
|-------------------------------|-------------------------------|


           ~~~~~~~~~~~~~~~
    S  E. +H.         +W            +W
|------------------|-------------|---------*|
|------------------|-------------|---------*|
|---5--------------|-------------|---------*|
|------7--(7)------|--(7)--------|--(7)----*|
|------------------|-------------|---------*|
|------------------|-------------|---------*|
|
|  +W                 +W            +W
|------------------|-------------|---------*|
|-(10)-------------|-(10)--------|-(10)----*|
|--(9)-------------|--(9)--------|--(9)----*|
|--(7)-------------|--(7)--------|--(7)----*|
|------------------|-------------|---------*|
|------------------|-------------|---------*|


Duration Legend
---------------
W - whole; H - half; Q - quarter; E - 8th; S - 16th; T - 32nd; X - 64th; a - acciaccatura
+ - note tied to previous; . - note dotted; .. - note double dotted
Uncapitalized letters represent notes that are staccato (1/2 duration)
Irregular groupings are notated above the duration line
Duration letters will always appear directly above the note/fret number it represents the
duration for.  Duration letters with no fret number below them represent rests.  Multi-
bar rests are notated in the form Wxn, where n is the number of bars to rest for.  Low
melody durations appear below the staff

Tablature Legend
----------------
 h   - hammer-on
 p   - pull-off
 b   - bend
 pb  - pre-bend
 r   - bend release (if no number after the r, then release immediately)
 /\  - slide into or out of (from/to "nowhere")
 s   - legato slide
 S   - shift slide
  - natural harmonic
[n]  - artificial harmonic
n(n) - tapped harmonic
 ~   - vibrato
 tr  - trill
 T   - tap
 TP  - trem. picking
 PM  - palm muting
\n/  - tremolo bar dip; n = amount to dip
 \n  - tremolo bar down
 n/  - tremolo bar up
/n\  - tremolo bar inverted dip
 =   - hold bend; also acts as connecting device for hammers/pulls
 <>  - volume swell (louder/softer)
 x   - on rhythm slash represents muted slash
 o   - on rhythm slash represents single note slash

Misc Legend
-----------
 |  - bar
||  - double bar
||o - repeat start
o|| - repeat end
*|  - double bar (ending)
 :  - bar (freetime)
 $  - Segno
 &  - Coda
Tempo markers -  = BPM(8/16=s8/s16), where s8 = swing 8ths, s16 = swing 16ths


***************************************************************************************
* Generated using Power Tab Editor by Brad Larsen - http://powertab.guitarnetwork.org *
***************************************************************************************
Related for Sea Of Madness tab